  0
SECTION
  2
HEADER
  9
$ACADVER
  1
AC1015
  9
$ACADMAINTVER
 70
     6
  9
$DWGCODEPAGE
  3
ANSI_1252
  9
$INSBASE
 10
0.0
 20
0.0
 30
0.0
  9
$EXTMIN
 10
-3014.155782552101
 20
-10669.142705447
 30
0.0
  9
$EXTMAX
 10
1154.58487068237
 20
4448.144043931559
 30
0.0
  9
$LIMMIN
 10
0.0
 20
0.0
  9
$LIMMAX
 10
12.0
 20
9.0
  9
$ORTHOMODE
 70
     0
  9
$REGENMODE
 70
     1
  9
$FILLMODE
 70
     1
  9
$QTEXTMODE
 70
     0
  9
$MIRRTEXT
 70
     1
  9
$LTSCALE
 40
1.0
  9
$ATTMODE
 70
     1
  9
$TEXTSIZE
 40
0.2
  9
$TRACEWID
 40
0.05
  9
$TEXTSTYLE
  7
Standard
  9
$CLAYER
  8
0
  9
$CELTYPE
  6
ByLayer
  9
$CECOLOR
 62
   256
  9
$CELTSCALE
 40
1.0
  9
$DISPSILH
 70
     0
  9
$DIMSCALE
 40
1.0
  9
$DIMASZ
 40
0.18
  9
$DIMEXO
 40
0.0625
  9
$DIMDLI
 40
0.38
  9
$DIMRND
 40
0.0
  9
$DIMDLE
 40
0.0
  9
$DIMEXE
 40
0.18
  9
$DIMTP
 40
0.0
  9
$DIMTM
 40
0.0
  9
$DIMTXT
 40
0.18
  9
$DIMCEN
 40
0.09
  9
$DIMTSZ
 40
0.0
  9
$DIMTOL
 70
     0
  9
$DIMLIM
 70
     0
  9
$DIMTIH
 70
     1
  9
$DIMTOH
 70
     1
  9
$DIMSE1
 70
     0
  9
$DIMSE2
 70
     0
  9
$DIMTAD
 70
     0
  9
$DIMZIN
 70
     0
  9
$DIMBLK
  1

  9
$DIMASO
 70
     1
  9
$DIMSHO
 70
     1
  9
$DIMPOST
  1

  9
$DIMAPOST
  1

  9
$DIMALT
 70
     0
  9
$DIMALTD
 70
     2
  9
$DIMALTF
 40
25.4
  9
$DIMLFAC
 40
1.0
  9
$DIMTOFL
 70
     0
  9
$DIMTVP
 40
0.0
  9
$DIMTIX
 70
     0
  9
$DIMSOXD
 70
     0
  9
$DIMSAH
 70
     0
  9
$DIMBLK1
  1

  9
$DIMBLK2
  1

  9
$DIMSTYLE
  2
Standard
  9
$DIMCLRD
 70
     0
  9
$DIMCLRE
 70
     0
  9
$DIMCLRT
 70
     0
  9
$DIMTFAC
 40
1.0
  9
$DIMGAP
 40
0.09
  9
$DIMJUST
 70
     0
  9
$DIMSD1
 70
     0
  9
$DIMSD2
 70
     0
  9
$DIMTOLJ
 70
     1
  9
$DIMTZIN
 70
     0
  9
$DIMALTZ
 70
     0
  9
$DIMALTTZ
 70
     0
  9
$DIMUPT
 70
     0
  9
$DIMDEC
 70
     4
  9
$DIMTDEC
 70
     4
  9
$DIMALTU
 70
     2
  9
$DIMALTTD
 70
     2
  9
$DIMTXSTY
  7
Standard
  9
$DIMAUNIT
 70
     0
  9
$DIMADEC
 70
     0
  9
$DIMALTRND
 40
0.0
  9
$DIMAZIN
 70
     0
  9
$DIMDSEP
 70
    46
  9
$DIMATFIT
 70
     3
  9
$DIMFRAC
 70
     0
  9
$DIMLDRBLK
  1

  9
$DIMLUNIT
 70
     2
  9
$DIMLWD
 70
    -2
  9
$DIMLWE
 70
    -2
  9
$DIMTMOVE
 70
     0
  9
$LUNITS
 70
     2
  9
$LUPREC
 70
     4
  9
$SKETCHINC
 40
0.1
  9
$FILLETRAD
 40
0.5
  9
$AUNITS
 70
     0
  9
$AUPREC
 70
     0
  9
$MENU
  1
.
  9
$ELEVATION
 40
0.0
  9
$PELEVATION
 40
0.0
  9
$THICKNESS
 40
0.0
  9
$LIMCHECK
 70
     0
  9
$CHAMFERA
 40
0.0
  9
$CHAMFERB
 40
0.0
  9
$CHAMFERC
 40
0.0
  9
$CHAMFERD
 40
0.0
  9
$SKPOLY
 70
     0
  9
$TDCREATE
 40
2458369.481866875
  9
$TDUCREATE
 40
2458369.398533542
  9
$TDUPDATE
 40
2458369.481867674
  9
$TDUUPDATE
 40
2458369.39853434
  9
$TDINDWG
 40
0.0000000116
  9
$TDUSRTIMER
 40
0.0000000116
  9
$USRTIMER
 70
     1
  9
$ANGBASE
 50
0.0
  9
$ANGDIR
 70
     0
  9
$PDMODE
 70
     0
  9
$PDSIZE
 40
0.0
  9
$PLINEWID
 40
0.0
  9
$SPLFRAME
 70
     0
  9
$SPLINETYPE
 70
     6
  9
$SPLINESEGS
 70
     8
  9
$HANDSEED
  5
310
  9
$SURFTAB1
 70
     6
  9
$SURFTAB2
 70
     6
  9
$SURFTYPE
 70
     6
  9
$SURFU
 70
     6
  9
$SURFV
 70
     6
  9
$UCSBASE
  2

  9
$UCSNAME
  2

  9
$UCSORG
 10
0.0
 20
0.0
 30
0.0
  9
$UCSXDIR
 10
1.0
 20
0.0
 30
0.0
  9
$UCSYDIR
 10
0.0
 20
1.0
 30
0.0
  9
$UCSORTHOREF
  2

  9
$UCSORTHOVIEW
 70
     0
  9
$UCSORGTOP
 10
0.0
 20
0.0
 30
0.0
  9
$UCSORGBOTTOM
 10
0.0
 20
0.0
 30
0.0
  9
$UCSORGLEFT
 10
0.0
 20
0.0
 30
0.0
  9
$UCSORGRIGHT
 10
0.0
 20
0.0
 30
0.0
  9
$UCSORGFRONT
 10
0.0
 20
0.0
 30
0.0
  9
$UCSORGBACK
 10
0.0
 20
0.0
 30
0.0
  9
$PUCSBASE
  2

  9
$PUCSNAME
  2

  9
$PUCSORG
 10
0.0
 20
0.0
 30
0.0
  9
$PUCSXDIR
 10
1.0
 20
0.0
 30
0.0
  9
$PUCSYDIR
 10
0.0
 20
1.0
 30
0.0
  9
$PUCSORTHOREF
  2

  9
$PUCSORTHOVIEW
 70
     0
  9
$PUCSORGTOP
 10
0.0
 20
0.0
 30
0.0
  9
$PUCSORGBOTTOM
 10
0.0
 20
0.0
 30
0.0
  9
$PUCSORGLEFT
 10
0.0
 20
0.0
 30
0.0
  9
$PUCSORGRIGHT
 10
0.0
 20
0.0
 30
0.0
  9
$PUCSORGFRONT
 10
0.0
 20
0.0
 30
0.0
  9
$PUCSORGBACK
 10
0.0
 20
0.0
 30
0.0
  9
$USERI1
 70
     0
  9
$USERI2
 70
     0
  9
$USERI3
 70
     0
  9
$USERI4
 70
     0
  9
$USERI5
 70
     0
  9
$USERR1
 40
19.0
  9
$USERR2
 40
0.0
  9
$USERR3
 40
0.0
  9
$USERR4
 40
0.0
  9
$USERR5
 40
0.0
  9
$WORLDVIEW
 70
     1
  9
$SHADEDGE
 70
     3
  9
$SHADEDIF
 70
    70
  9
$TILEMODE
 70
     1
  9
$MAXACTVP
 70
    64
  9
$PINSBASE
 10
0.0
 20
0.0
 30
0.0
  9
$PLIMCHECK
 70
     0
  9
$PEXTMIN
 10
1.00000000000000E+20
 20
1.00000000000000E+20
 30
1.00000000000000E+20
  9
$PEXTMAX
 10
-1.00000000000000E+20
 20
-1.00000000000000E+20
 30
-1.00000000000000E+20
  9
$PLIMMIN
 10
0.0
 20
0.0
  9
$PLIMMAX
 10
12.0
 20
9.0
  9
$UNITMODE
 70
     0
  9
$VISRETAIN
 70
     1
  9
$PLINEGEN
 70
     0
  9
$PSLTSCALE
 70
     1
  9
$TREEDEPTH
 70
  3020
  9
$CMLSTYLE
  2
Standard
  9
$CMLJUST
 70
     0
  9
$CMLSCALE
 40
1.0
  9
$PROXYGRAPHICS
 70
     1
  9
$MEASUREMENT
 70
     1
  9
$CELWEIGHT
370
    -1
  9
$ENDCAPS
280
     0
  9
$JOINSTYLE
280
     0
  9
$LWDISPLAY
290
     0
  9
$INSUNITS
 70
     4
  9
$HYPERLINKBASE
  1

  9
$STYLESHEET
  1

  9
$XEDIT
290
     1
  9
$CEPSNTYPE
380
     0
  9
$PSTYLEMODE
290
     1
  9
$FINGERPRINTGUID
  2
{7DC4D93E-2CAF-48C2-BEDC-117082DF90D8}
  9
$VERSIONGUID
  2
{FAEB1C32-E019-11D5-929B-00C0DF256EC4}
  9
$EXTNAMES
290
     1
  9
$PSVPSCALE
 40
0.0
  9
$OLESTARTUP
290
     0
  0
ENDSEC
  0
SECTION
  2
CLASSES
  0
CLASS
  1
ACDBDICTIONARYWDFLT
  2
AcDbDictionaryWithDefault
  3
ObjectDBX Classes
 90
        0
280
     0
281
     0
  0
CLASS
  1
VISUALSTYLE
  2
AcDbVisualStyle
  3
ObjectDBX Classes
 90
     4095
280
     0
281
     0
  0
CLASS
  1
MATERIAL
  2
AcDbMaterial
  3
ObjectDBX Classes
 90
     1153
280
     0
281
     0
  0
CLASS
  1
SCALE
  2
AcDbScale
  3
ObjectDBX Classes
 90
     1153
280
     0
281
     0
  0
CLASS
  1
SUN
  2
AcDbSun
  3
SCENEOE
 90
     1153
280
     0
281
     0
  0
CLASS
  1
DICTIONARYVAR
  2
AcDbDictionaryVar
  3
ObjectDBX Classes
 90
        0
280
     0
281
     0
  0
CLASS
  1
ACDBPLACEHOLDER
  2
AcDbPlaceHolder
  3
ObjectDBX Classes
 90
        0
280
     0
281
     0
  0
CLASS
  1
LAYOUT
  2
AcDbLayout
  3
ObjectDBX Classes
 90
        0
280
     0
281
     0
  0
ENDSEC
  0
SECTION
  2
TABLES
  0
TABLE
  2
VPORT
  5
8
330
0
100
AcDbSymbolTable
 70
     1
  0
VPORT
  5
29
330
8
100
AcDbSymbolTableRecord
100
AcDbViewportTableRecord
  2
*Active
 70
     0
 10
0.0
 20
0.0
 11
1.0
 21
1.0
 12
-929.7854559348655
 22
-3110.499330757721
 13
0.0
 23
0.0
 14
0.5
 24
0.5
 15
0.5
 25
0.5
 16
0.0
 26
0.0
 36
1.0
 17
0.0
 27
0.0
 37
0.0
 40
16629.01542431642
 41
1.60267857142857
 42
50.0
 43
0.0
 44
0.0
 50
0.0
 51
0.0
 71
     0
 72
   100
 73
     1
 74
     3
 75
     0
 76
     0
 77
     0
 78
     0
281
     0
 65
     1
110
0.0
120
0.0
130
0.0
111
1.0
121
0.0
131
0.0
112
0.0
122
1.0
132
0.0
 79
     0
146
0.0
  0
ENDTAB
  0
TABLE
  2
LTYPE
  5
5
330
0
100
AcDbSymbolTable
 70
    38
  0
LTYPE
  5
14
330
5
100
AcDbSymbolTableRecord
100
AcDbLinetypeTableRecord
  2
ByBlock
 70
     0
  3

 72
    65
 73
     0
 40
0.0
  0
LTYPE
  5
15
330
5
100
AcDbSymbolTableRecord
100
AcDbLinetypeTableRecord
  2
ByLayer
 70
     0
  3

 72
    65
 73
     0
 40
0.0
  0
LTYPE
  5
16
330
5
100
AcDbSymbolTableRecord
100
AcDbLinetypeTableRecord
  2
Continuous
 70
     0
  3
Solid line
 72
    65
 73
     0
 40
0.0
  0
LTYPE
  5
6A
330
5
100
AcDbSymbolTableRecord
100
AcDbLinetypeTableRecord
  2
DASHED
 70
     0
  3
Dashed
 72
    65
 73
     2
 40
15.0
 49
7.0
 74
     0
 49
-8.0
 74
     0
  0
LTYPE
  5
6B
330
5
100
AcDbSymbolTableRecord
100
AcDbLinetypeTableRecord
  2
DOTTED
 70
     0
  3
Dotted
 72
    65
 73
     2
 40
1.0
 49
0.0
 74
     0
 49
-1.0
 74
     0
  0
LTYPE
  5
6C
330
5
100
AcDbSymbolTableRecord
100
AcDbLinetypeTableRecord
  2
DOT_CENTER
 70
     0
  3
Dot_Center
 72
    65
 73
     4
 40
14.0
 49
12.0
 74
     0
 49
-1.0
 74
     0
 49
0.0
 74
     0
 49
-1.0
 74
     0
  0
LTYPE
  5
6D
330
5
100
AcDbSymbolTableRecord
100
AcDbLinetypeTableRecord
  2
LONG_DASHED
 70
     0
  3
Long_Dashed
 72
    65
 73
     2
 40
15.0
 49
10.0
 74
     0
 49
-5.0
 74
     0
  0
LTYPE
  5
6E
330
5
100
AcDbSymbolTableRecord
100
AcDbLinetypeTableRecord
  2
DASH_CENTER
 70
     0
  3
Dash_Center
 72
    65
 73
     4
 40
14.0
 49
11.0
 74
     0
 49
-1.0
 74
     0
 49
1.0
 74
     0
 49
-1.0
 74
     0
  0
LTYPE
  5
6F
330
5
100
AcDbSymbolTableRecord
100
AcDbLinetypeTableRecord
  2
PHANTOM
 70
     0
  3
Phantom
 72
    65
 73
     6
 40
13.0
 49
10.0
 74
     0
 49
-1.0
 74
     0
 49
0.0
 74
     0
 49
-1.0
 74
     0
 49
0.0
 74
     0
 49
-1.0
 74
     0
  0
LTYPE
  5
70
330
5
100
AcDbSymbolTableRecord
100
AcDbLinetypeTableRecord
  2
CENTER_DASH_DASH
 70
     0
  3
Center_Dash_Dash
 72
    65
 73
     6
 40
14.0
 49
9.0
 74
     0
 49
-1.0
 74
     0
 49
1.0
 74
     0
 49
-1.0
 74
     0
 49
1.0
 74
     0
 49
-1.0
 74
     0
  0
LTYPE
  5
71
330
5
100
AcDbSymbolTableRecord
100
AcDbLinetypeTableRecord
  2
AI_Linetype_30
 70
     0
  3
AI_Linetype_30
 72
    65
 73
     2
 40
2.0
 49
1.0
 74
     0
 49
-1.0
 74
     0
  0
LTYPE
  5
72
330
5
100
AcDbSymbolTableRecord
100
AcDbLinetypeTableRecord
  2
AI_Linetype_29
 70
     0
  3
AI_Linetype_29
 72
    65
 73
     2
 40
2.0
 49
1.0
 74
     0
 49
-1.0
 74
     0
  0
LTYPE
  5
73
330
5
100
AcDbSymbolTableRecord
100
AcDbLinetypeTableRecord
  2
AI_Linetype_28
 70
     0
  3
AI_Linetype_28
 72
    65
 73
     2
 40
2.0
 49
1.0
 74
     0
 49
-1.0
 74
     0
  0
LTYPE
  5
74
330
5
100
AcDbSymbolTableRecord
100
AcDbLinetypeTableRecord
  2
AI_Linetype_27
 70
     0
  3
AI_Linetype_27
 72
    65
 73
     2
 40
2.0
 49
1.0
 74
     0
 49
-1.0
 74
     0
  0
LTYPE
  5
75
330
5
100
AcDbSymbolTableRecord
100
AcDbLinetypeTableRecord
  2
AI_Linetype_26
 70
     0
  3
AI_Linetype_26
 72
    65
 73
     2
 40
2.0
 49
1.0
 74
     0
 49
-1.0
 74
     0
  0
LTYPE
  5
76
330
5
100
AcDbSymbolTableRecord
100
AcDbLinetypeTableRecord
  2
AI_Linetype_25
 70
     0
  3
AI_Linetype_25
 72
    65
 73
     2
 40
2.0
 49
1.0
 74
     0
 49
-1.0
 74
     0
  0
LTYPE
  5
77
330
5
100
AcDbSymbolTableRecord
100
AcDbLinetypeTableRecord
  2
AI_Linetype_24
 70
     0
  3
AI_Linetype_24
 72
    65
 73
     2
 40
2.0
 49
1.0
 74
     0
 49
-1.0
 74
     0
  0
LTYPE
  5
78
330
5
100
AcDbSymbolTableRecord
100
AcDbLinetypeTableRecord
  2
AI_Linetype_23
 70
     0
  3
AI_Linetype_23
 72
    65
 73
     2
 40
2.0
 49
1.0
 74
     0
 49
-1.0
 74
     0
  0
LTYPE
  5
79
330
5
100
AcDbSymbolTableRecord
100
AcDbLinetypeTableRecord
  2
AI_Linetype_22
 70
     0
  3
AI_Linetype_22
 72
    65
 73
     2
 40
2.0
 49
1.0
 74
     0
 49
-1.0
 74
     0
  0
LTYPE
  5
7A
330
5
100
AcDbSymbolTableRecord
100
AcDbLinetypeTableRecord
  2
AI_Linetype_21
 70
     0
  3
AI_Linetype_21
 72
    65
 73
     2
 40
2.0
 49
1.0
 74
     0
 49
-1.0
 74
     0
  0
LTYPE
  5
7B
330
5
100
AcDbSymbolTableRecord
100
AcDbLinetypeTableRecord
  2
AI_Linetype_20
 70
     0
  3
AI_Linetype_20
 72
    65
 73
     2
 40
2.0
 49
1.0
 74
     0
 49
-1.0
 74
     0
  0
LTYPE
  5
7C
330
5
100
AcDbSymbolTableRecord
100
AcDbLinetypeTableRecord
  2
AI_Linetype_19
 70
     0
  3
AI_Linetype_19
 72
    65
 73
     2
 40
2.0
 49
1.0
 74
     0
 49
-1.0
 74
     0
  0
LTYPE
  5
7D
330
5
100
AcDbSymbolTableRecord
100
AcDbLinetypeTableRecord
  2
AI_Linetype_18
 70
     0
  3
AI_Linetype_18
 72
    65
 73
     2
 40
2.0
 49
1.0
 74
     0
 49
-1.0
 74
     0
  0
LTYPE
  5
7E
330
5
100
AcDbSymbolTableRecord
100
AcDbLinetypeTableRecord
  2
AI_Linetype_17
 70
     0
  3
AI_Linetype_17
 72
    65
 73
     2
 40
2.0
 49
1.0
 74
     0
 49
-1.0
 74
     0
  0
LTYPE
  5
7F
330
5
100
AcDbSymbolTableRecord
100
AcDbLinetypeTableRecord
  2
AI_Linetype_16
 70
     0
  3
AI_Linetype_16
 72
    65
 73
     2
 40
2.0
 49
1.0
 74
     0
 49
-1.0
 74
     0
  0
LTYPE
  5
80
330
5
100
AcDbSymbolTableRecord
100
AcDbLinetypeTableRecord
  2
AI_Linetype_15
 70
     0
  3
AI_Linetype_15
 72
    65
 73
     2
 40
2.0
 49
1.0
 74
     0
 49
-1.0
 74
     0
  0
LTYPE
  5
81
330
5
100
AcDbSymbolTableRecord
100
AcDbLinetypeTableRecord
  2
AI_Linetype_14
 70
     0
  3
AI_Linetype_14
 72
    65
 73
     2
 40
2.0
 49
1.0
 74
     0
 49
-1.0
 74
     0
  0
LTYPE
  5
82
330
5
100
AcDbSymbolTableRecord
100
AcDbLinetypeTableRecord
  2
AI_Linetype_13
 70
     0
  3
AI_Linetype_13
 72
    65
 73
     2
 40
2.0
 49
1.0
 74
     0
 49
-1.0
 74
     0
  0
LTYPE
  5
83
330
5
100
AcDbSymbolTableRecord
100
AcDbLinetypeTableRecord
  2
AI_Linetype_12
 70
     0
  3
AI_Linetype_12
 72
    65
 73
     2
 40
2.0
 49
1.0
 74
     0
 49
-1.0
 74
     0
  0
LTYPE
  5
84
330
5
100
AcDbSymbolTableRecord
100
AcDbLinetypeTableRecord
  2
AI_Linetype_11
 70
     0
  3
AI_Linetype_11
 72
    65
 73
     2
 40
2.0
 49
1.0
 74
     0
 49
-1.0
 74
     0
  0
LTYPE
  5
85
330
5
100
AcDbSymbolTableRecord
100
AcDbLinetypeTableRecord
  2
AI_Linetype_10
 70
     0
  3
AI_Linetype_10
 72
    65
 73
     2
 40
2.0
 49
1.0
 74
     0
 49
-1.0
 74
     0
  0
LTYPE
  5
86
330
5
100
AcDbSymbolTableRecord
100
AcDbLinetypeTableRecord
  2
AI_Linetype_9
 70
     0
  3
AI_Linetype_9
 72
    65
 73
     2
 40
2.0
 49
1.0
 74
     0
 49
-1.0
 74
     0
  0
LTYPE
  5
87
330
5
100
AcDbSymbolTableRecord
100
AcDbLinetypeTableRecord
  2
AI_Linetype_8
 70
     0
  3
AI_Linetype_8
 72
    65
 73
     2
 40
2.0
 49
1.0
 74
     0
 49
-1.0
 74
     0
  0
LTYPE
  5
88
330
5
100
AcDbSymbolTableRecord
100
AcDbLinetypeTableRecord
  2
AI_Linetype_7
 70
     0
  3
AI_Linetype_7
 72
    65
 73
     2
 40
2.0
 49
1.0
 74
     0
 49
-1.0
 74
     0
  0
LTYPE
  5
89
330
5
100
AcDbSymbolTableRecord
100
AcDbLinetypeTableRecord
  2
AI_Linetype_6
 70
     0
  3
AI_Linetype_6
 72
    65
 73
     2
 40
2.0
 49
1.0
 74
     0
 49
-1.0
 74
     0
  0
LTYPE
  5
8A
330
5
100
AcDbSymbolTableRecord
100
AcDbLinetypeTableRecord
  2
AI_Linetype_5
 70
     0
  3
AI_Linetype_5
 72
    65
 73
     2
 40
2.0
 49
1.0
 74
     0
 49
-1.0
 74
     0
  0
LTYPE
  5
8B
330
5
100
AcDbSymbolTableRecord
100
AcDbLinetypeTableRecord
  2
AI_Linetype_4
 70
     0
  3
AI_Linetype_4
 72
    65
 73
     2
 40
2.0
 49
1.0
 74
     0
 49
-1.0
 74
     0
  0
LTYPE
  5
8C
330
5
100
AcDbSymbolTableRecord
100
AcDbLinetypeTableRecord
  2
AI_Linetype_3
 70
     0
  3
AI_Linetype_3
 72
    65
 73
     2
 40
2.0
 49
1.0
 74
     0
 49
-1.0
 74
     0
  0
LTYPE
  5
8D
330
5
100
AcDbSymbolTableRecord
100
AcDbLinetypeTableRecord
  2
AI_Linetype_2
 70
     0
  3
AI_Linetype_2
 72
    65
 73
     2
 40
2.0
 49
1.0
 74
     0
 49
-1.0
 74
     0
  0
LTYPE
  5
8E
330
5
100
AcDbSymbolTableRecord
100
AcDbLinetypeTableRecord
  2
AI_Linetype_1
 70
     0
  3
AI_Linetype_1
 72
    65
 73
     2
 40
2.0
 49
1.0
 74
     0
 49
-1.0
 74
     0
  0
ENDTAB
  0
TABLE
  2
LAYER
  5
2
330
0
100
AcDbSymbolTable
 70
     5
  0
LAYER
  5
10
330
2
100
AcDbSymbolTableRecord
100
AcDbLayerTableRecord
  2
0
 70
     0
 62
     7
  6
Continuous
370
    -3
390
F
  0
LAYER
  5
8F
330
2
100
AcDbSymbolTableRecord
100
AcDbLayerTableRecord
  2
$DDT_AUDIT_GENERATED__3B_
 70
     0
 62
     7
  6
Continuous
370
    -3
390
F
  0
LAYER
  5
90
330
2
100
AcDbSymbolTableRecord
100
AcDbLayerTableRecord
  2
$DDT_AUDIT_GENERATED__545_
 70
     0
 62
     7
  6
Continuous
370
    -3
390
F
  0
LAYER
  5
91
330
2
100
AcDbSymbolTableRecord
100
AcDbLayerTableRecord
  2
$DDT_AUDIT_GENERATED__93_
 70
     0
 62
     7
  6
Continuous
370
    -3
390
F
  0
LAYER
  5
92
330
2
100
AcDbSymbolTableRecord
100
AcDbLayerTableRecord
  2
1
 70
     0
 62
     7
  6
Continuous
370
    -3
390
F
  0
ENDTAB
  0
TABLE
  2
STYLE
  5
3
330
0
100
AcDbSymbolTable
 70
     1
  0
STYLE
  5
11
330
3
100
AcDbSymbolTableRecord
100
AcDbTextStyleTableRecord
  2
Standard
 70
     0
 40
0.0
 41
1.0
 50
0.0
 71
     0
 42
0.2
  3
txt
  4

  0
ENDTAB
  0
TABLE
  2
VIEW
  5
6
330
0
100
AcDbSymbolTable
 70
     0
  0
ENDTAB
  0
TABLE
  2
UCS
  5
7
330
0
100
AcDbSymbolTable
 70
     0
  0
ENDTAB
  0
TABLE
  2
APPID
  5
9
330
0
100
AcDbSymbolTable
 70
     1
  0
APPID
  5
12
330
9
100
AcDbSymbolTableRecord
100
AcDbRegAppTableRecord
  2
ACAD
 70
     0
  0
ENDTAB
  0
TABLE
  2
DIMSTYLE
  5
A
330
0
100
AcDbSymbolTable
 70
     1
100
AcDbDimStyleTable
  0
DIMSTYLE
105
27
330
A
100
AcDbSymbolTableRecord
100
AcDbDimStyleTableRecord
  2
Standard
 70
     0
178
     0
340
11
  0
ENDTAB
  0
TABLE
  2
BLOCK_RECORD
  5
1
330
0
100
AcDbSymbolTable
 70
     1
  0
BLOCK_RECORD
  5
1F
330
1
100
AcDbSymbolTableRecord
100
AcDbBlockTableRecord
  2
*Model_Space
340
22
  0
BLOCK_RECORD
  5
1B
330
1
100
AcDbSymbolTableRecord
100
AcDbBlockTableRecord
  2
*Paper_Space
340
1E
  0
BLOCK_RECORD
  5
23
330
1
100
AcDbSymbolTableRecord
100
AcDbBlockTableRecord
  2
*Paper_Space0
340
26
  0
ENDTAB
  0
ENDSEC
  0
SECTION
  2
BLOCKS
  0
BLOCK
  5
20
330
1F
100
AcDbEntity
  8
0
100
AcDbBlockBegin
  2
*Model_Space
 70
     0
 10
0.0
 20
0.0
 30
0.0
  3
*Model_Space
  1
*Model_Space
  0
ENDBLK
  5
21
330
1F
100
AcDbEntity
  8
0
100
AcDbBlockEnd
  0
BLOCK
  5
1C
330
1B
100
AcDbEntity
 67
     1
  8
0
100
AcDbBlockBegin
  2
*Paper_Space
 70
     0
 10
0.0
 20
0.0
 30
0.0
  3
*Paper_Space
  1
*Paper_Space
  0
ENDBLK
  5
1D
330
1B
100
AcDbEntity
 67
     1
  8
0
100
AcDbBlockEnd
  0
BLOCK
  5
24
330
23
100
AcDbEntity
  8
0
100
AcDbBlockBegin
  2
*Paper_Space0
 70
     0
 10
0.0
 20
0.0
 30
0.0
  3
*Paper_Space0
  1
*Paper_Space0
  0
ENDBLK
  5
25
330
23
100
AcDbEntity
  8
0
100
AcDbBlockEnd
  0
ENDSEC
  0
SECTION
  2
ENTITIES
  0
LINE
  5
93
330
1F
100
AcDbEntity
  8
1
  6
Continuous
 62
     5
100
AcDbLine
 10
-929.639038986812
 20
-9402.252347502705
 30
0.0
 11
-917.639038986812
 21
-9402.252347502705
 31
0.0
  0
LINE
  5
94
330
1F
100
AcDbEntity
  8
1
  6
Continuous
 62
     5
100
AcDbLine
 10
-915.639038986812
 20
-9202.252347170504
 30
0.0
 11
-915.639038986812
 21
-9400.252347502705
 31
0.0
  0
LINE
  5
95
330
1F
100
AcDbEntity
  8
1
  6
Continuous
 62
     5
100
AcDbLine
 10
-931.639038986812
 20
-9242.254422164899
 30
0.0
 11
-931.639038986812
 21
-9400.252347502705
 31
0.0
  0
LINE
  5
96
330
1F
100
AcDbEntity
  8
1
  6
Continuous
 62
     5
100
AcDbLine
 10
-951.6401917245621
 20
-9222.254422198119
 30
0.0
 11
-1040.639038986812
 21
-9222.259551814675
 31
0.0
  0
LINE
  5
97
330
1F
100
AcDbEntity
  8
1
  6
Continuous
 62
     5
100
AcDbLine
 10
-1040.639038986812
 20
-9202.259551781455
 30
0.0
 11
-915.639038986812
 21
-9202.252347170504
 31
0.0
  0
LINE
  5
98
330
1F
100
AcDbEntity
  8
1
  6
Continuous
 62
     5
100
AcDbLine
 10
-1040.639038986812
 20
-9202.259551781455
 30
0.0
 11
-1040.639038986812
 21
-9222.259551814675
 31
0.0
  0
LINE
  5
99
330
1F
100
AcDbEntity
  8
1
  6
Continuous
 62
     5
100
AcDbLine
 10
-931.639038986812
 20
-9398.751825656866
 30
0.0
 11
-915.639038986812
 21
-9398.751825656866
 31
0.0
  0
LINE
  5
9A
330
1F
100
AcDbEntity
  8
1
  6
Continuous
 62
     5
100
AcDbLine
 10
-194.1050743798255
 20
-9202.252808265604
 30
0.0
 11
290.8949256201745
 21
-9202.252808265604
 31
0.0
  0
LINE
  5
9B
330
1F
100
AcDbEntity
  8
1
  6
Continuous
 62
     5
100
AcDbLine
 10
-194.1050743798255
 20
-9222.252808298825
 30
0.0
 11
290.8949256201745
 21
-9222.252808298825
 31
0.0
  0
LINE
  5
9C
330
1F
100
AcDbEntity
  8
1
  6
Continuous
 62
     5
100
AcDbLine
 10
401.8949256201745
 20
-9402.245603986854
 30
0.0
 11
413.8949256201745
 21
-9402.245603986854
 31
0.0
  0
LINE
  5
9D
330
1F
100
AcDbEntity
  8
1
  6
Continuous
 62
     5
100
AcDbLine
 10
415.8949256201745
 20
-9202.245603654654
 30
0.0
 11
415.8949256201745
 21
-9400.245603986854
 31
0.0
  0
LINE
  5
9E
330
1F
100
AcDbEntity
  8
1
  6
Continuous
 62
     5
100
AcDbLine
 10
399.8949256201745
 20
-9242.247678649048
 30
0.0
 11
399.8949256201745
 21
-9400.245603986854
 31
0.0
  0
LINE
  5
9F
330
1F
100
AcDbEntity
  8
1
  6
Continuous
 62
     5
100
AcDbLine
 10
379.8937728824244
 20
-9222.247678682268
 30
0.0
 11
290.8949256201745
 21
-9222.252808298823
 31
0.0
  0
LINE
  5
A0
330
1F
100
AcDbEntity
  8
1
  6
Continuous
 62
     5
100
AcDbLine
 10
290.8949256201745
 20
-9202.252808265604
 30
0.0
 11
415.8949256201745
 21
-9202.245603654654
 31
0.0
  0
LINE
  5
A1
330
1F
100
AcDbEntity
  8
1
  6
Continuous
 62
     5
100
AcDbLine
 10
290.8949256201745
 20
-9202.252808265604
 30
0.0
 11
290.8949256201745
 21
-9222.252808298823
 31
0.0
  0
LINE
  5
A2
330
1F
100
AcDbEntity
  8
1
  6
Continuous
 62
     5
100
AcDbLine
 10
399.8949256201745
 20
-9398.745082141015
 30
0.0
 11
415.8949256201745
 21
-9398.745082141015
 31
0.0
  0
LINE
  5
A3
330
1F
100
AcDbEntity
  8
1
  6
Continuous
 62
     5
100
AcDbLine
 10
-319.1050743798255
 20
-9398.745082141017
 30
0.0
 11
-303.1050743798255
 21
-9398.745082141017
 31
0.0
  0
LINE
  5
A4
330
1F
100
AcDbEntity
  8
1
  6
Continuous
 62
     5
100
AcDbLine
 10
-194.1050743798255
 20
-9222.252808298825
 30
0.0
 11
-194.1050743798255
 21
-9202.252808265604
 31
0.0
  0
LINE
  5
A5
330
1F
100
AcDbEntity
  8
1
  6
Continuous
 62
     5
100
AcDbLine
 10
-319.1050743798255
 20
-9202.245603654654
 30
0.0
 11
-194.1050743798255
 21
-9202.252808265604
 31
0.0
  0
LINE
  5
A6
330
1F
100
AcDbEntity
  8
1
  6
Continuous
 62
     5
100
AcDbLine
 10
-194.1050743798255
 20
-9222.252808298825
 30
0.0
 11
-283.1039216420754
 21
-9222.247678682268
 31
0.0
  0
LINE
  5
A7
330
1F
100
AcDbEntity
  8
1
  6
Continuous
 62
     5
100
AcDbLine
 10
-303.1050743798255
 20
-9400.245603986856
 30
0.0
 11
-303.1050743798255
 21
-9242.247678649048
 31
0.0
  0
LINE
  5
A8
330
1F
100
AcDbEntity
  8
1
  6
Continuous
 62
     5
100
AcDbLine
 10
-319.1050743798255
 20
-9400.245603986856
 30
0.0
 11
-319.1050743798255
 21
-9202.245603654654
 31
0.0
  0
LINE
  5
A9
330
1F
100
AcDbEntity
  8
1
  6
Continuous
 62
     5
100
AcDbLine
 10
-317.1050743798255
 20
-9402.245603986856
 30
0.0
 11
-305.1050743798255
 21
-9402.245603986856
 31
0.0
  0
LINE
  5
AA
330
1F
100
AcDbEntity
  8
1
  6
Continuous
 62
     5
100
AcDbLine
 10
406.529870589
 20
-5075.552544114976
 30
0.0
 11
418.529870589
 21
-5075.552544114976
 31
0.0
  0
LINE
  5
AB
330
1F
100
AcDbEntity
  8
1
  6
Continuous
 62
     5
100
AcDbLine
 10
404.529870589
 20
-5073.552544114976
 30
0.0
 11
404.529870589
 21
-4875.552543782775
 31
0.0
  0
LINE
  5
AC
330
1F
100
AcDbEntity
  8
1
  6
Continuous
 62
     5
100
AcDbLine
 10
420.529870589
 20
-5073.552544114976
 30
0.0
 11
420.529870589
 21
-4915.554618777169
 31
0.0
  0
LINE
  5
AD
330
1F
100
AcDbEntity
  8
1
  6
Continuous
 62
     5
100
AcDbLine
 10
529.529870589
 20
-4895.559748426945
 30
0.0
 11
440.5310233267501
 21
-4895.554618810388
 31
0.0
  0
LINE
  5
AE
330
1F
100
AcDbEntity
  8
1
  6
Continuous
 62
     5
100
AcDbLine
 10
404.529870589
 20
-4875.552543782775
 30
0.0
 11
529.529870589
 21
-4875.559748393725
 31
0.0
  0
LINE
  5
AF
330
1F
100
AcDbEntity
  8
1
  6
Continuous
 62
     5
100
AcDbLine
 10
529.529870589
 20
-4895.559748426945
 30
0.0
 11
529.529870589
 21
-4875.559748393725
 31
0.0
  0
LINE
  5
B0
330
1F
100
AcDbEntity
  8
1
  6
Continuous
 62
     5
100
AcDbLine
 10
404.529870589
 20
-5072.052022269137
 30
0.0
 11
420.529870589
 21
-5072.052022269137
 31
0.0
  0
LINE
  5
B1
330
1F
100
AcDbEntity
  8
1
  6
Continuous
 62
     5
100
AcDbLine
 10
1123.529870589
 20
-5071.979225424439
 30
0.0
 11
1139.529870589
 21
-5071.979225424439
 31
0.0
  0
LINE
  5
B2
330
1F
100
AcDbEntity
  8
1
  6
Continuous
 62
     5
100
AcDbLine
 10
1014.529870589
 20
-4875.486951549026
 30
0.0
 11
1014.529870589
 21
-4895.486951582247
 31
0.0
  0
LINE
  5
B3
330
1F
100
AcDbEntity
  8
1
  6
Continuous
 62
     5
100
AcDbLine
 10
1014.529870589
 20
-4875.486951549026
 30
0.0
 11
1139.529870589
 21
-4875.479746938077
 31
0.0
  0
LINE
  5
B4
330
1F
100
AcDbEntity
  8
1
  6
Continuous
 62
     5
100
AcDbLine
 10
1103.52871785125
 20
-4895.481821965691
 30
0.0
 11
1014.529870589
 21
-4895.486951582247
 31
0.0
  0
LINE
  5
B5
330
1F
100
AcDbEntity
  8
1
  6
Continuous
 62
     5
100
AcDbLine
 10
1123.529870589
 20
-4915.481821932471
 30
0.0
 11
1123.529870589
 21
-5073.479747270278
 31
0.0
  0
LINE
  5
B6
330
1F
100
AcDbEntity
  8
1
  6
Continuous
 62
     5
100
AcDbLine
 10
1139.529870589
 20
-4875.479746938077
 30
0.0
 11
1139.529870589
 21
-5073.479747270278
 31
0.0
  0
LINE
  5
B7
330
1F
100
AcDbEntity
  8
1
  6
Continuous
 62
     5
100
AcDbLine
 10
1125.529870589
 20
-5075.479747270278
 30
0.0
 11
1137.529870589
 21
-5075.479747270278
 31
0.0
  0
LINE
  5
B8
330
1F
100
AcDbEntity
  8
1
  6
Continuous
 62
     5
100
AcDbLine
 10
529.529870589
 20
-4895.559748426945
 30
0.0
 11
1014.529870589
 21
-4895.559748426945
 31
0.0
  0
LINE
  5
B9
330
1F
100
AcDbEntity
  8
1
  6
Continuous
 62
     5
100
AcDbLine
 10
529.529870589
 20
-4875.559748393725
 30
0.0
 11
1014.529870589
 21
-4875.559748393725
 31
0.0
  0
LINE
  5
BA
330
1F
100
AcDbEntity
  8
1
  6
Continuous
 62
     7
100
AcDbLine
 10
-2546.98897281367
 20
2981.123688720568
 30
0.0
 11
-885.375864470363
 21
2981.123688720568
 31
0.0
  0
LINE
  5
BB
330
1F
100
AcDbEntity
  8
1
  6
Continuous
 62
     7
100
AcDbLine
 10
-1005.375864470363
 20
2152.653640265887
 30
0.0
 11
-1005.375864470363
 21
2981.123688720568
 31
0.0
  0
LINE
  5
BC
330
1F
100
AcDbEntity
  8
1
  6
Continuous
 62
     7
100
AcDbLine
 10
-885.375864470363
 20
2152.653640265887
 30
0.0
 11
-2546.98897281367
 21
2152.653640265887
 31
0.0
  0
LINE
  5
BD
330
1F
100
AcDbEntity
  8
1
  6
Continuous
 62
     7
100
AcDbLine
 10
-2426.98897281367
 20
2152.653640265887
 30
0.0
 11
-2426.98897281367
 21
2981.123688720568
 31
0.0
  0
LINE
  5
BE
330
1F
100
AcDbEntity
  8
1
  6
Continuous
 62
     7
100
AcDbLine
 10
-1005.375864470363
 20
2797.828556959609
 30
0.0
 11
-1128.5205252116
 21
2797.828556959609
 31
0.0
  0
LINE
  5
BF
330
1F
100
AcDbEntity
  8
1
  6
Continuous
 62
     7
100
AcDbLine
 10
-1128.5205252116
 20
2797.828556959609
 30
0.0
 11
-1128.5205252116
 21
2152.653640265887
 31
0.0
  0
LINE
  5
C0
330
1F
100
AcDbEntity
  8
1
  6
Continuous
 62
     7
100
AcDbLine
 10
-2426.98897281367
 20
2797.828556959609
 30
0.0
 11
-2303.8276821385
 21
2797.828556959609
 31
0.0
  0
LINE
  5
C1
330
1F
100
AcDbEntity
  8
1
  6
Continuous
 62
     7
100
AcDbLine
 10
-2303.8276821385
 20
2797.828556959609
 30
0.0
 11
-2303.8276821385
 21
2152.653640265887
 31
0.0
  0
LINE
  5
C2
330
1F
100
AcDbEntity
  8
1
  6
DASHED
 62
     3
100
AcDbLine
 10
-794.175703577223
 20
2797.828556959609
 30
0.0
 11
-794.175703577223
 21
2152.653640265887
 31
0.0
  0
LINE
  5
C3
330
1F
100
AcDbEntity
  8
1
  6
DASHED
 62
     3
100
AcDbLine
 10
-2649.19814996753
 20
2797.828556959609
 30
0.0
 11
-2649.19814996753
 21
2152.653640265887
 31
0.0
  0
LINE
  5
C4
330
1F
100
AcDbEntity
  8
1
  6
DASHED
 62
     3
100
AcDbLine
 10
-1005.375864470363
 20
2797.828556959609
 30
0.0
 11
-794.175703577223
 21
2797.828556959609
 31
0.0
  0
LINE
  5
C5
330
1F
100
AcDbEntity
  8
1
  6
DASHED
 62
     3
100
AcDbLine
 10
-794.175703577223
 20
2152.653640265887
 30
0.0
 11
-1005.375864470363
 21
2152.653640265887
 31
0.0
  0
LINE
  5
C6
330
1F
100
AcDbEntity
  8
1
  6
DASHED
 62
     3
100
AcDbLine
 10
-2649.19814996753
 20
2797.828556959609
 30
0.0
 11
-2426.98897281367
 21
2797.828556959609
 31
0.0
  0
LINE
  5
C7
330
1F
100
AcDbEntity
  8
1
  6
DASHED
 62
     3
100
AcDbLine
 10
-2426.98897281367
 20
2152.653640265887
 30
0.0
 11
-2649.19814996753
 21
2152.653640265887
 31
0.0
  0
LINE
  5
C8
330
1F
100
AcDbEntity
  8
1
  6
Continuous
 62
     7
100
AcDbLine
 10
-2423.8276821385
 20
2744.479728916681
 30
0.0
 11
-1008.5205252116
 21
2744.479728916681
 31
0.0
  0
LINE
  5
C9
330
1F
100
AcDbEntity
  8
1
  6
Continuous
 62
     1
100
AcDbLine
 10
-1716.19073360898
 20
2981.123688720568
 30
0.0
 11
-1716.19073360898
 21
2152.653640265887
 31
0.0
  0
LINE
  5
EB
330
1F
100
AcDbEntity
  8
1
  6
Continuous
 62
     7
100
AcDbLine
 10
-2426.98897281367
 20
3806.518011584219
 30
0.0
 11
-1005.375864470363
 21
3806.422241376253
 31
0.0
  0
LINE
  5
EC
330
1F
100
AcDbEntity
  8
1
  6
Continuous
 62
     7
100
AcDbLine
 10
-2426.98897281367
 20
3806.518011584219
 30
0.0
 11
-2426.98897281367
 21
3886.833884039738
 31
0.0
  0
LINE
  5
ED
330
1F
100
AcDbEntity
  8
1
  6
Continuous
 62
     7
100
AcDbLine
 10
-1005.375864470363
 20
3806.422241376253
 30
0.0
 11
-1005.375864470363
 21
3879.516713111157
 31
0.0
  0
LINE
  5
EE
330
1F
100
AcDbEntity
  8
1
  6
Continuous
 62
     5
100
AcDbLine
 10
-2405.179208536915
 20
3798.068564730909
 30
0.0
 11
-1027.153952921864
 21
3798.068564730909
 31
0.0
  0
LINE
  5
EF
330
1F
100
AcDbEntity
  8
1
  6
Continuous
 62
     5
100
AcDbLine
 10
-2285.179208536915
 20
3778.068564697689
 30
0.0
 11
-1147.153952921864
 21
3778.068564697689
 31
0.0
  0
LINE
  5
F0
330
1F
100
AcDbEntity
  8
1
  6
Continuous
 62
     5
100
AcDbLine
 10
-1036.153952921864
 20
3598.075769009658
 30
0.0
 11
-1024.153952921864
 21
3598.075769009658
 31
0.0
  0
LINE
  5
F1
330
1F
100
AcDbEntity
  8
1
  6
Continuous
 62
     5
100
AcDbLine
 10
-1022.153952921864
 20
3798.075769341859
 30
0.0
 11
-1022.153952921864
 21
3600.075769009658
 31
0.0
  0
LINE
  5
F2
330
1F
100
AcDbEntity
  8
1
  6
Continuous
 62
     5
100
AcDbLine
 10
-1038.153952921864
 20
3758.073694347465
 30
0.0
 11
-1038.153952921864
 21
3600.075769009658
 31
0.0
  0
LINE
  5
F3
330
1F
100
AcDbEntity
  8
1
  6
Continuous
 62
     5
100
AcDbLine
 10
-1058.155105659614
 20
3778.073694314245
 30
0.0
 11
-1147.153952921864
 21
3778.068564697689
 31
0.0
  0
LINE
  5
F4
330
1F
100
AcDbEntity
  8
1
  6
Continuous
 62
     5
100
AcDbLine
 10
-1147.153952921864
 20
3798.068564730909
 30
0.0
 11
-1022.153952921864
 21
3798.075769341859
 31
0.0
  0
LINE
  5
F5
330
1F
100
AcDbEntity
  8
1
  6
Continuous
 62
     5
100
AcDbLine
 10
-1147.153952921864
 20
3798.068564730909
 30
0.0
 11
-1147.153952921864
 21
3778.068564697689
 31
0.0
  0
LINE
  5
F6
330
1F
100
AcDbEntity
  8
1
  6
Continuous
 62
     5
100
AcDbLine
 10
-1038.153952921864
 20
3601.576290855497
 30
0.0
 11
-1022.153952921864
 21
3601.576290855497
 31
0.0
  0
LINE
  5
F7
330
1F
100
AcDbEntity
  8
1
  6
Continuous
 62
     5
100
AcDbLine
 10
-2410.179208536915
 20
3601.576290855497
 30
0.0
 11
-2394.179208536915
 21
3601.576290855497
 31
0.0
  0
LINE
  5
F8
330
1F
100
AcDbEntity
  8
1
  6
Continuous
 62
     5
100
AcDbLine
 10
-2285.179208536915
 20
3778.068564697689
 30
0.0
 11
-2285.179208536915
 21
3798.068564730909
 31
0.0
  0
LINE
  5
F9
330
1F
100
AcDbEntity
  8
1
  6
Continuous
 62
     5
100
AcDbLine
 10
-2410.179208536915
 20
3798.075769341859
 30
0.0
 11
-2285.179208536915
 21
3798.068564730909
 31
0.0
  0
LINE
  5
FA
330
1F
100
AcDbEntity
  8
1
  6
Continuous
 62
     5
100
AcDbLine
 10
-2285.179208536915
 20
3778.068564697689
 30
0.0
 11
-2374.178055799165
 21
3778.073694314245
 31
0.0
  0
LINE
  5
FB
330
1F
100
AcDbEntity
  8
1
  6
Continuous
 62
     5
100
AcDbLine
 10
-2394.179208536915
 20
3600.075769009658
 30
0.0
 11
-2394.179208536915
 21
3758.073694347465
 31
0.0
  0
LINE
  5
FC
330
1F
100
AcDbEntity
  8
1
  6
Continuous
 62
     5
100
AcDbLine
 10
-2410.179208536915
 20
3600.075769009658
 30
0.0
 11
-2410.179208536915
 21
3798.075769341859
 31
0.0
  0
LINE
  5
FD
330
1F
100
AcDbEntity
  8
1
  6
Continuous
 62
     5
100
AcDbLine
 10
-2408.179208536915
 20
3598.075769009658
 30
0.0
 11
-2396.179208536915
 21
3598.075769009658
 31
0.0
  0
LINE
  5
FE
330
1F
100
AcDbEntity
  8
1
  6
Continuous
 62
     5
100
AcDbLine
 10
-2768.203361416506
 20
-5075.573725671171
 30
0.0
 11
-2756.203361416506
 21
-5075.573725671171
 31
0.0
  0
LINE
  5
FF
330
1F
100
AcDbEntity
  8
1
  6
Continuous
 62
     5
100
AcDbLine
 10
-2770.203361416506
 20
-5073.573725671171
 30
0.0
 11
-2770.203361416506
 21
-4875.57372533897
 31
0.0
  0
LINE
  5
100
330
1F
100
AcDbEntity
  8
1
  6
Continuous
 62
     5
100
AcDbLine
 10
-2754.203361416506
 20
-5073.573725671171
 30
0.0
 11
-2754.203361416506
 21
-4915.575800333363
 31
0.0
  0
LINE
  5
101
330
1F
100
AcDbEntity
  8
1
  6
Continuous
 62
     5
100
AcDbLine
 10
-2645.203361416506
 20
-4895.58092998314
 30
0.0
 11
-2734.202208678756
 21
-4895.575800366583
 31
0.0
  0
LINE
  5
102
330
1F
100
AcDbEntity
  8
1
  6
Continuous
 62
     5
100
AcDbLine
 10
-2770.203361416506
 20
-4875.57372533897
 30
0.0
 11
-2645.203361416506
 21
-4875.58092994992
 31
0.0
  0
LINE
  5
103
330
1F
100
AcDbEntity
  8
1
  6
Continuous
 62
     5
100
AcDbLine
 10
-2645.203361416506
 20
-4895.58092998314
 30
0.0
 11
-2645.203361416506
 21
-4875.58092994992
 31
0.0
  0
LINE
  5
104
330
1F
100
AcDbEntity
  8
1
  6
Continuous
 62
     5
100
AcDbLine
 10
-2770.203361416506
 20
-5072.073203825332
 30
0.0
 11
-2754.203361416506
 21
-5072.073203825332
 31
0.0
  0
LINE
  5
105
330
1F
100
AcDbEntity
  8
1
  6
Continuous
 62
     5
100
AcDbLine
 10
-2645.203361416506
 20
-4895.58092998314
 30
0.0
 11
-787.178105801454
 21
-4895.58092998314
 31
0.0
  0
LINE
  5
106
330
1F
100
AcDbEntity
  8
1
  6
Continuous
 62
     5
100
AcDbLine
 10
-2645.203361416506
 20
-4875.58092994992
 30
0.0
 11
-787.178105801454
 21
-4875.58092994992
 31
0.0
  0
LINE
  5
107
330
1F
100
AcDbEntity
  8
1
  6
Continuous
 62
     5
100
AcDbLine
 10
-676.178105801454
 20
-5075.573725671171
 30
0.0
 11
-664.178105801454
 21
-5075.573725671171
 31
0.0
  0
LINE
  5
108
330
1F
100
AcDbEntity
  8
1
  6
Continuous
 62
     5
100
AcDbLine
 10
-662.178105801454
 20
-4875.57372533897
 30
0.0
 11
-662.178105801454
 21
-5073.573725671171
 31
0.0
  0
LINE
  5
109
330
1F
100
AcDbEntity
  8
1
  6
Continuous
 62
     5
100
AcDbLine
 10
-678.178105801454
 20
-4915.575800333363
 30
0.0
 11
-678.178105801454
 21
-5073.573725671171
 31
0.0
  0
LINE
  5
10A
330
1F
100
AcDbEntity
  8
1
  6
Continuous
 62
     5
100
AcDbLine
 10
-698.179258539204
 20
-4895.575800366583
 30
0.0
 11
-787.178105801454
 21
-4895.58092998314
 31
0.0
  0
LINE
  5
10B
330
1F
100
AcDbEntity
  8
1
  6
Continuous
 62
     5
100
AcDbLine
 10
-787.178105801454
 20
-4875.58092994992
 30
0.0
 11
-662.178105801454
 21
-4875.57372533897
 31
0.0
  0
LINE
  5
10C
330
1F
100
AcDbEntity
  8
1
  6
Continuous
 62
     5
100
AcDbLine
 10
-787.178105801454
 20
-4875.58092994992
 30
0.0
 11
-787.178105801454
 21
-4895.58092998314
 31
0.0
  0
LINE
  5
10D
330
1F
100
AcDbEntity
  8
1
  6
Continuous
 62
     5
100
AcDbLine
 10
-678.178105801454
 20
-5072.073203825332
 30
0.0
 11
-662.178105801454
 21
-5072.073203825332
 31
0.0
  0
LINE
  5
10E
330
1F
100
AcDbEntity
  8
1
  6
Continuous
 62
     5
100
AcDbLine
 10
-2525.203361416506
 20
-1984.300617124609
 30
0.0
 11
-907.178105801454
 21
-1984.300617124609
 31
0.0
  0
LINE
  5
10F
330
1F
100
AcDbEntity
  8
1
  6
Continuous
 62
     5
100
AcDbLine
 10
-2525.203361416506
 20
-2004.300617157829
 30
0.0
 11
-907.178105801454
 21
-2004.300617157829
 31
0.0
  0
LINE
  5
110
330
1F
100
AcDbEntity
  8
1
  6
Continuous
 62
     5
100
AcDbLine
 10
-2650.203361416506
 20
-2180.792891000021
 30
0.0
 11
-2634.203361416506
 21
-2180.792891000021
 31
0.0
  0
LINE
  5
111
330
1F
100
AcDbEntity
  8
1
  6
Continuous
 62
     5
100
AcDbLine
 10
-2525.203361416506
 20
-2004.300617157829
 30
0.0
 11
-2525.203361416506
 21
-1984.300617124609
 31
0.0
  0
LINE
  5
112
330
1F
100
AcDbEntity
  8
1
  6
Continuous
 62
     5
100
AcDbLine
 10
-2650.203361416506
 20
-1984.293412513659
 30
0.0
 11
-2525.203361416506
 21
-1984.300617124609
 31
0.0
  0
LINE
  5
113
330
1F
100
AcDbEntity
  8
1
  6
Continuous
 62
     5
100
AcDbLine
 10
-2525.203361416506
 20
-2004.300617157829
 30
0.0
 11
-2614.202208678756
 21
-2004.295487541273
 31
0.0
  0
LINE
  5
114
330
1F
100
AcDbEntity
  8
1
  6
Continuous
 62
     5
100
AcDbLine
 10
-2634.203361416506
 20
-2182.29341284586
 30
0.0
 11
-2634.203361416506
 21
-2024.295487508053
 31
0.0
  0
LINE
  5
115
330
1F
100
AcDbEntity
  8
1
  6
Continuous
 62
     5
100
AcDbLine
 10
-2650.203361416506
 20
-2182.29341284586
 30
0.0
 11
-2650.203361416506
 21
-1984.293412513659
 31
0.0
  0
LINE
  5
116
330
1F
100
AcDbEntity
  8
1
  6
Continuous
 62
     5
100
AcDbLine
 10
-2648.203361416506
 20
-2184.29341284586
 30
0.0
 11
-2636.203361416506
 21
-2184.29341284586
 31
0.0
  0
LINE
  5
117
330
1F
100
AcDbEntity
  8
1
  6
Continuous
 62
     5
100
AcDbLine
 10
-798.178105801454
 20
-2180.792891000021
 30
0.0
 11
-782.178105801454
 21
-2180.792891000021
 31
0.0
  0
LINE
  5
118
330
1F
100
AcDbEntity
  8
1
  6
Continuous
 62
     5
100
AcDbLine
 10
-907.178105801454
 20
-1984.300617124609
 30
0.0
 11
-907.178105801454
 21
-2004.300617157829
 31
0.0
  0
LINE
  5
119
330
1F
100
AcDbEntity
  8
1
  6
Continuous
 62
     5
100
AcDbLine
 10
-907.178105801454
 20
-1984.300617124609
 30
0.0
 11
-782.178105801454
 21
-1984.293412513659
 31
0.0
  0
LINE
  5
11A
330
1F
100
AcDbEntity
  8
1
  6
Continuous
 62
     5
100
AcDbLine
 10
-818.179258539204
 20
-2004.295487541273
 30
0.0
 11
-907.178105801454
 21
-2004.300617157829
 31
0.0
  0
LINE
  5
11B
330
1F
100
AcDbEntity
  8
1
  6
Continuous
 62
     5
100
AcDbLine
 10
-798.178105801454
 20
-2024.295487508053
 30
0.0
 11
-798.178105801454
 21
-2182.29341284586
 31
0.0
  0
LINE
  5
11C
330
1F
100
AcDbEntity
  8
1
  6
Continuous
 62
     5
100
AcDbLine
 10
-782.178105801454
 20
-1984.293412513659
 30
0.0
 11
-782.178105801454
 21
-2182.29341284586
 31
0.0
  0
LINE
  5
11D
330
1F
100
AcDbEntity
  8
1
  6
Continuous
 62
     5
100
AcDbLine
 10
-796.178105801454
 20
-2184.29341284586
 30
0.0
 11
-784.178105801454
 21
-2184.29341284586
 31
0.0
  0
LINE
  5
11E
330
1F
100
AcDbEntity
  8
1
  6
Continuous
 62
     5
100
AcDbLine
 10
-2528.179208536915
 20
706.8911780818988
 30
0.0
 11
-2516.179208536915
 21
706.8911780818988
 31
0.0
  0
LINE
  5
11F
330
1F
100
AcDbEntity
  8
1
  6
Continuous
 62
     5
100
AcDbLine
 10
-2530.179208536915
 20
708.8911780818988
 30
0.0
 11
-2530.179208536915
 21
906.8911784141001
 31
0.0
  0
LINE
  5
120
330
1F
100
AcDbEntity
  8
1
  6
Continuous
 62
     5
100
AcDbLine
 10
-2514.179208536915
 20
708.8911780818988
 30
0.0
 11
-2514.179208536915
 21
866.889103419706
 31
0.0
  0
LINE
  5
121
330
1F
100
AcDbEntity
  8
1
  6
Continuous
 62
     5
100
AcDbLine
 10
-2405.179208536915
 20
886.8839737699295
 30
0.0
 11
-2494.178055799165
 21
886.8891033864859
 31
0.0
  0
LINE
  5
122
330
1F
100
AcDbEntity
  8
1
  6
Continuous
 62
     5
100
AcDbLine
 10
-2530.179208536915
 20
906.8911784141001
 30
0.0
 11
-2405.179208536915
 21
906.8839738031496
 31
0.0
  0
LINE
  5
123
330
1F
100
AcDbEntity
  8
1
  6
Continuous
 62
     5
100
AcDbLine
 10
-2405.179208536915
 20
886.8839737699295
 30
0.0
 11
-2405.179208536915
 21
906.8839738031496
 31
0.0
  0
LINE
  5
124
330
1F
100
AcDbEntity
  8
1
  6
Continuous
 62
     5
100
AcDbLine
 10
-2530.179208536915
 20
710.3916999277378
 30
0.0
 11
-2514.179208536915
 21
710.3916999277378
 31
0.0
  0
LINE
  5
125
330
1F
100
AcDbEntity
  8
1
  6
Continuous
 62
     5
100
AcDbLine
 10
-918.1539529218635
 20
710.3916999277378
 30
0.0
 11
-902.1539529218635
 21
710.3916999277378
 31
0.0
  0
LINE
  5
126
330
1F
100
AcDbEntity
  8
1
  6
Continuous
 62
     5
100
AcDbLine
 10
-1027.153952921864
 20
906.8839738031496
 30
0.0
 11
-1027.153952921864
 21
886.8839737699295
 31
0.0
  0
LINE
  5
127
330
1F
100
AcDbEntity
  8
1
  6
Continuous
 62
     5
100
AcDbLine
 10
-1027.153952921864
 20
906.8839738031496
 30
0.0
 11
-902.1539529218635
 21
906.8911784141001
 31
0.0
  0
LINE
  5
128
330
1F
100
AcDbEntity
  8
1
  6
Continuous
 62
     5
100
AcDbLine
 10
-938.1551056596136
 20
886.8891033864859
 30
0.0
 11
-1027.153952921864
 21
886.8839737699295
 31
0.0
  0
LINE
  5
129
330
1F
100
AcDbEntity
  8
1
  6
Continuous
 62
     5
100
AcDbLine
 10
-918.1539529218635
 20
866.889103419706
 30
0.0
 11
-918.1539529218635
 21
708.8911780818988
 31
0.0
  0
LINE
  5
12A
330
1F
100
AcDbEntity
  8
1
  6
Continuous
 62
     5
100
AcDbLine
 10
-902.1539529218635
 20
906.8911784141001
 30
0.0
 11
-902.1539529218635
 21
708.8911780818988
 31
0.0
  0
LINE
  5
12B
330
1F
100
AcDbEntity
  8
1
  6
Continuous
 62
     5
100
AcDbLine
 10
-916.1539529218635
 20
706.8911780818988
 30
0.0
 11
-904.1539529218635
 21
706.8911780818988
 31
0.0
  0
LINE
  5
12C
330
1F
100
AcDbEntity
  8
1
  6
Continuous
 62
     5
100
AcDbLine
 10
-2405.179208536915
 20
886.8839737699295
 30
0.0
 11
-1027.153952921864
 21
886.8839737699295
 31
0.0
  0
LINE
  5
12D
330
1F
100
AcDbEntity
  8
1
  6
Continuous
 62
     5
100
AcDbLine
 10
-2405.179208536915
 20
906.8839738031496
 30
0.0
 11
-1027.153952921864
 21
906.8839738031496
 31
0.0
  0
LINE
  5
12E
330
1F
100
AcDbEntity
  8
1
  6
Continuous
 62
     5
100
AcDbLine
 10
-1291.639038986812
 20
-9202.259551781455
 30
0.0
 11
-1040.639038986812
 21
-9202.259551781455
 31
0.0
  0
LINE
  5
12F
330
1F
100
AcDbEntity
  8
1
  6
Continuous
 62
     5
100
AcDbLine
 10
-1291.639038986812
 20
-9222.259551814675
 30
0.0
 11
-1040.639038986812
 21
-9222.259551814675
 31
0.0
  0
LINE
  5
130
330
1F
100
AcDbEntity
  8
1
  6
Continuous
 62
     5
100
AcDbLine
 10
-1416.639038986812
 20
-9398.751825656866
 30
0.0
 11
-1400.639038986812
 21
-9398.751825656866
 31
0.0
  0
LINE
  5
131
330
1F
100
AcDbEntity
  8
1
  6
Continuous
 62
     5
100
AcDbLine
 10
-1291.639038986812
 20
-9222.259551814675
 30
0.0
 11
-1291.639038986812
 21
-9202.259551781455
 31
0.0
  0
LINE
  5
132
330
1F
100
AcDbEntity
  8
1
  6
Continuous
 62
     5
100
AcDbLine
 10
-1416.639038986812
 20
-9202.252347170504
 30
0.0
 11
-1291.639038986812
 21
-9202.259551781455
 31
0.0
  0
LINE
  5
133
330
1F
100
AcDbEntity
  8
1
  6
Continuous
 62
     5
100
AcDbLine
 10
-1291.639038986812
 20
-9222.259551814675
 30
0.0
 11
-1380.637886249062
 21
-9222.254422198119
 31
0.0
  0
LINE
  5
134
330
1F
100
AcDbEntity
  8
1
  6
Continuous
 62
     5
100
AcDbLine
 10
-1400.639038986812
 20
-9400.252347502705
 30
0.0
 11
-1400.639038986812
 21
-9242.254422164899
 31
0.0
  0
LINE
  5
135
330
1F
100
AcDbEntity
  8
1
  6
Continuous
 62
     5
100
AcDbLine
 10
-1416.639038986812
 20
-9400.252347502705
 30
0.0
 11
-1416.639038986812
 21
-9202.252347170504
 31
0.0
  0
LINE
  5
136
330
1F
100
AcDbEntity
  8
1
  6
Continuous
 62
     5
100
AcDbLine
 10
-1414.639038986812
 20
-9402.252347502705
 30
0.0
 11
-1402.639038986812
 21
-9402.252347502705
 31
0.0
  0
LINE
  5
137
330
1F
100
AcDbEntity
  8
1
  6
Continuous
 62
     7
100
AcDbLine
 10
-885.375864470363
 20
915.2376504484942
 30
0.0
 11
-885.375864470363
 21
988.332122183398
 31
0.0
  0
LINE
  5
138
330
1F
100
AcDbEntity
  8
1
  6
Continuous
 62
     7
100
AcDbLine
 10
-2546.98897281367
 20
915.3334206564598
 30
0.0
 11
-2546.98897281367
 21
995.649293111979
 31
0.0
  0
LINE
  5
139
330
1F
100
AcDbEntity
  8
1
  6
Continuous
 62
     7
100
AcDbLine
 10
-763.0793303594851
 20
-1975.95400139562
 30
0.0
 11
-763.079330359485
 21
-1902.91493077406
 31
0.0
  0
LINE
  5
13A
330
1F
100
AcDbEntity
  8
1
  6
Continuous
 62
     7
100
AcDbLine
 10
-2669.30213685847
 20
-1975.95400139562
 30
0.0
 11
-2669.30213685847
 21
-1902.91493077406
 31
0.0
  0
LINE
  5
13B
330
1F
100
AcDbEntity
  8
1
  6
Continuous
 62
     7
100
AcDbLine
 10
1154.58487068237
 20
-4867.20105435307
 30
0.0
 11
1154.58487068237
 21
-4795.67530771901
 31
0.0
  0
LINE
  5
13C
330
1F
100
AcDbEntity
  8
1
  6
Continuous
 62
     7
100
AcDbLine
 10
389.4748704956332
 20
-4867.20105435307
 30
0.0
 11
389.474870495633
 21
-4796.3072452083
 31
0.0
  0
LINE
  5
13E
330
1F
100
AcDbEntity
  8
1
  6
Continuous
 62
     7
100
AcDbLine
 10
-640.7495363807489
 20
-4867.20105435307
 30
0.0
 11
-640.749536380749
 21
-4794.17861366543
 31
0.0
  0
LINE
  5
13F
330
1F
100
AcDbEntity
  8
1
  6
Continuous
 62
     7
100
AcDbLine
 10
-2791.63193083721
 20
-4867.20105435307
 30
0.0
 11
-2791.63193083721
 21
-4794.17861366543
 31
0.0
  0
LINE
  5
140
330
1F
100
AcDbEntity
  8
1
  6
Continuous
 62
     7
100
AcDbLine
 10
412.6237385242361
 20
-9190.20226889281
 30
0.0
 11
412.623738524236
 21
-9114.60218844624
 31
0.0
  0
LINE
  5
141
330
1F
100
AcDbEntity
  8
1
  6
Continuous
 62
     7
100
AcDbLine
 10
-315.833887283884
 20
-9190.20226889281
 30
0.0
 11
-315.833887283884
 21
-9114.60218844624
 31
0.0
  0
LINE
  5
142
330
1F
100
AcDbEntity
  8
1
  6
Continuous
 62
     7
100
AcDbLine
 10
-884.910226320363
 20
-9190.20226889281
 30
0.0
 11
-884.910226320363
 21
-9115.08445653016
 31
0.0
  0
LINE
  5
143
330
1F
100
AcDbEntity
  8
1
  6
Continuous
 62
     7
100
AcDbLine
 10
-1447.36785165326
 20
-9190.20226889281
 30
0.0
 11
-1447.36785165326
 21
-9115.08445653016
 31
0.0
  0
LINE
  5
144
330
1F
100
AcDbEntity
  8
1
  6
Continuous
 62
     7
100
AcDbLine
 10
-315.833887283884
 20
-9190.20226889281
 30
0.0
 11
412.6237385242361
 21
-9190.20226889281
 31
0.0
  0
LINE
  5
145
330
1F
100
AcDbEntity
  8
1
  6
Continuous
 62
     7
100
AcDbLine
 10
-1447.36785165326
 20
-9190.20226889281
 30
0.0
 11
-884.910226320363
 21
-9190.20226889281
 31
0.0
  0
LINE
  5
146
330
1F
100
AcDbEntity
  8
1
  6
Continuous
 62
     7
100
AcDbLine
 10
389.4748704956332
 20
-4867.20105435307
 30
0.0
 11
1154.58487068237
 21
-4867.20105435307
 31
0.0
  0
LINE
  5
147
330
1F
100
AcDbEntity
  8
1
  6
Continuous
 62
     7
100
AcDbLine
 10
-2791.63193083721
 20
-4867.20105435307
 30
0.0
 11
-640.7495363807489
 21
-4867.20105435307
 31
0.0
  0
LINE
  5
148
330
1F
100
AcDbEntity
  8
1
  6
Continuous
 62
     7
100
AcDbLine
 10
-2669.30213685847
 20
-1975.95400139562
 30
0.0
 11
-763.0793303594851
 21
-1975.95400139562
 31
0.0
  0
LINE
  5
149
330
1F
100
AcDbEntity
  8
1
  6
Continuous
 62
     7
100
AcDbLine
 10
-2546.98897281367
 20
915.3334206564598
 30
0.0
 11
-885.375864470363
 21
915.2376504484942
 31
0.0
  0
LINE
  5
1BE
330
1F
100
AcDbEntity
  8
1
  6
Continuous
 62
     1
100
AcDbLine
 10
-1716.19073360898
 20
89.9390977928088
 30
0.0
 11
-1716.19073360898
 21
-738.530950661872
 31
0.0
  0
LINE
  5
1BF
330
1F
100
AcDbEntity
  8
1
  6
Continuous
 62
     7
100
AcDbLine
 10
-2423.8276821385
 20
-146.704862011078
 30
0.0
 11
-1008.5205252116
 21
-146.704862011078
 31
0.0
  0
LINE
  5
1C0
330
1F
100
AcDbEntity
  8
1
  6
DASHED
 62
     3
100
AcDbLine
 10
-2546.98897281367
 20
-738.530950661872
 30
0.0
 11
-2769.19814996753
 21
-738.530950661872
 31
0.0
  0
LINE
  5
1C1
330
1F
100
AcDbEntity
  8
1
  6
DASHED
 62
     3
100
AcDbLine
 10
-2769.19814996753
 20
-93.3560339681499
 30
0.0
 11
-2546.98897281367
 21
-93.3560339681499
 31
0.0
  0
LINE
  5
1C2
330
1F
100
AcDbEntity
  8
1
  6
DASHED
 62
     3
100
AcDbLine
 10
-674.175703577223
 20
-738.530950661872
 30
0.0
 11
-885.375864470363
 21
-738.530950661872
 31
0.0
  0
LINE
  5
1C3
330
1F
100
AcDbEntity
  8
1
  6
DASHED
 62
     3
100
AcDbLine
 10
-885.375864470363
 20
-93.3560339681499
 30
0.0
 11
-674.175703577223
 21
-93.3560339681499
 31
0.0
  0
LINE
  5
1C4
330
1F
100
AcDbEntity
  8
1
  6
DASHED
 62
     3
100
AcDbLine
 10
-2769.19814996753
 20
-93.3560339681499
 30
0.0
 11
-2769.19814996753
 21
-738.530950661872
 31
0.0
  0
LINE
  5
1C5
330
1F
100
AcDbEntity
  8
1
  6
DASHED
 62
     3
100
AcDbLine
 10
-674.175703577223
 20
-93.3560339681499
 30
0.0
 11
-674.175703577223
 21
-738.530950661872
 31
0.0
  0
LINE
  5
1C6
330
1F
100
AcDbEntity
  8
1
  6
Continuous
 62
     7
100
AcDbLine
 10
-2423.8276821385
 20
-93.3560339681499
 30
0.0
 11
-2423.8276821385
 21
-738.530950661872
 31
0.0
  0
LINE
  5
1C7
330
1F
100
AcDbEntity
  8
1
  6
Continuous
 62
     7
100
AcDbLine
 10
-2546.98897281367
 20
-93.3560339681499
 30
0.0
 11
-2423.8276821385
 21
-93.3560339681499
 31
0.0
  0
LINE
  5
1C8
330
1F
100
AcDbEntity
  8
1
  6
Continuous
 62
     7
100
AcDbLine
 10
-1008.5205252116
 20
-93.3560339681499
 30
0.0
 11
-1008.5205252116
 21
-738.530950661872
 31
0.0
  0
LINE
  5
1C9
330
1F
100
AcDbEntity
  8
1
  6
Continuous
 62
     7
100
AcDbLine
 10
-885.375864470363
 20
-93.3560339681499
 30
0.0
 11
-1008.5205252116
 21
-93.3560339681499
 31
0.0
  0
LINE
  5
1CA
330
1F
100
AcDbEntity
  8
1
  6
Continuous
 62
     7
100
AcDbLine
 10
-2546.98897281367
 20
-738.530950661872
 30
0.0
 11
-2546.98897281367
 21
89.9390977928088
 31
0.0
  0
LINE
  5
1CB
330
1F
100
AcDbEntity
  8
1
  6
Continuous
 62
     7
100
AcDbLine
 10
-885.375864470363
 20
-738.530950661872
 30
0.0
 11
-2546.98897281367
 21
-738.530950661872
 31
0.0
  0
LINE
  5
1CC
330
1F
100
AcDbEntity
  8
1
  6
Continuous
 62
     7
100
AcDbLine
 10
-885.375864470363
 20
-738.530950661872
 30
0.0
 11
-885.375864470363
 21
89.9390977928088
 31
0.0
  0
LINE
  5
1CD
330
1F
100
AcDbEntity
  8
1
  6
Continuous
 62
     7
100
AcDbLine
 10
-2546.98897281367
 20
89.9390977928088
 30
0.0
 11
-885.375864470363
 21
89.9390977928088
 31
0.0
  0
LINE
  5
1CE
330
1F
100
AcDbEntity
  8
1
  6
Continuous
 62
     1
100
AcDbLine
 10
-1716.19073360898
 20
-2691.83367348693
 30
0.0
 11
-1716.19073360898
 21
-3520.30372194161
 31
0.0
  0
LINE
  5
1CF
330
1F
100
AcDbEntity
  8
1
  6
Continuous
 62
     7
100
AcDbLine
 10
-2546.14084618331
 20
-2928.47763329082
 30
0.0
 11
-886.223991100721
 21
-2928.47763329082
 31
0.0
  0
LINE
  5
1D0
330
1F
100
AcDbEntity
  8
1
  6
DASHED
 62
     3
100
AcDbLine
 10
-2669.30213685847
 20
-3520.30372194161
 30
0.0
 11
-2891.51131401234
 21
-3520.30372194161
 31
0.0
  0
LINE
  5
1D1
330
1F
100
AcDbEntity
  8
1
  6
DASHED
 62
     3
100
AcDbLine
 10
-2891.51131401234
 20
-2875.12880524789
 30
0.0
 11
-2669.30213685847
 21
-2875.12880524789
 31
0.0
  0
LINE
  5
1D2
330
1F
100
AcDbEntity
  8
1
  6
DASHED
 62
     3
100
AcDbLine
 10
-551.879169466344
 20
-3520.30372194161
 30
0.0
 11
-763.079330359485
 21
-3520.30372194161
 31
0.0
  0
LINE
  5
1D3
330
1F
100
AcDbEntity
  8
1
  6
DASHED
 62
     3
100
AcDbLine
 10
-763.079330359485
 20
-2875.12880524789
 30
0.0
 11
-551.879169466344
 21
-2875.12880524789
 31
0.0
  0
LINE
  5
1D4
330
1F
100
AcDbEntity
  8
1
  6
DASHED
 62
     3
100
AcDbLine
 10
-2891.51131401234
 20
-2875.12880524789
 30
0.0
 11
-2891.51131401234
 21
-3520.30372194161
 31
0.0
  0
LINE
  5
1D5
330
1F
100
AcDbEntity
  8
1
  6
DASHED
 62
     3
100
AcDbLine
 10
-551.879169466344
 20
-2875.12880524789
 30
0.0
 11
-551.879169466344
 21
-3520.30372194161
 31
0.0
  0
LINE
  5
1D6
330
1F
100
AcDbEntity
  8
1
  6
Continuous
 62
     7
100
AcDbLine
 10
-2546.14084618331
 20
-2875.12880524789
 30
0.0
 11
-2546.14084618331
 21
-3520.30372194161
 31
0.0
  0
LINE
  5
1D7
330
1F
100
AcDbEntity
  8
1
  6
Continuous
 62
     7
100
AcDbLine
 10
-2669.30213685847
 20
-2875.12880524789
 30
0.0
 11
-2546.14084618331
 21
-2875.12880524789
 31
0.0
  0
LINE
  5
1D8
330
1F
100
AcDbEntity
  8
1
  6
Continuous
 62
     7
100
AcDbLine
 10
-886.223991100721
 20
-2875.12880524789
 30
0.0
 11
-886.223991100721
 21
-3520.30372194161
 31
0.0
  0
LINE
  5
1D9
330
1F
100
AcDbEntity
  8
1
  6
Continuous
 62
     7
100
AcDbLine
 10
-763.079330359485
 20
-2875.12880524789
 30
0.0
 11
-886.223991100721
 21
-2875.12880524789
 31
0.0
  0
LINE
  5
1DA
330
1F
100
AcDbEntity
  8
1
  6
Continuous
 62
     7
100
AcDbLine
 10
-2669.30213685847
 20
-3520.30372194161
 30
0.0
 11
-2669.30213685847
 21
-2691.83367348693
 31
0.0
  0
LINE
  5
1DB
330
1F
100
AcDbEntity
  8
1
  6
Continuous
 62
     7
100
AcDbLine
 10
-763.079330359485
 20
-3520.30372194161
 30
0.0
 11
-2669.30213685847
 21
-3520.30372194161
 31
0.0
  0
LINE
  5
1DC
330
1F
100
AcDbEntity
  8
1
  6
Continuous
 62
     7
100
AcDbLine
 10
-763.079330359485
 20
-3520.30372194161
 30
0.0
 11
-763.079330359485
 21
-2691.83367348693
 31
0.0
  0
LINE
  5
1DD
330
1F
100
AcDbEntity
  8
1
  6
Continuous
 62
     7
100
AcDbLine
 10
-2669.30213685847
 20
-2691.83367348693
 30
0.0
 11
-763.079330359485
 21
-2691.83367348693
 31
0.0
  0
LINE
  5
1DE
330
1F
100
AcDbEntity
  8
1
  6
Continuous
 62
     1
100
AcDbLine
 10
-1716.19073360898
 20
-5812.55176217573
 30
0.0
 11
-1716.19073360898
 21
-6641.02181063041
 31
0.0
  0
LINE
  5
1DF
330
1F
100
AcDbEntity
  8
1
  6
Continuous
 62
     7
100
AcDbLine
 10
-2668.47064016204
 20
-6049.19572197962
 30
0.0
 11
-763.894197121986
 21
-6049.19572197962
 31
0.0
  0
LINE
  5
1E0
330
1F
100
AcDbEntity
  8
1
  6
DASHED
 62
     3
100
AcDbLine
 10
508.822094054434
 20
-4670.30223583134
 30
0.0
 11
1153.84605190211
 21
-4670.30223583134
 31
0.0
  0
LINE
  5
1E1
330
1F
100
AcDbEntity
  8
1
  6
DASHED
 62
     3
100
AcDbLine
 10
-2791.63193083721
 20
-6641.02181063041
 30
0.0
 11
-3013.84110799108
 21
-6641.02181063041
 31
0.0
  0
LINE
  5
1E2
330
1F
100
AcDbEntity
  8
1
  6
DASHED
 62
     3
100
AcDbLine
 10
-3013.84110799108
 20
-5995.84689393669
 30
0.0
 11
-2791.63193083721
 21
-5995.84689393669
 31
0.0
  0
LINE
  5
1E3
330
1F
100
AcDbEntity
  8
1
  6
DASHED
 62
     3
100
AcDbLine
 10
-429.549375487609
 20
-6641.02181063041
 30
0.0
 11
-640.749536380749
 21
-6641.02181063041
 31
0.0
  0
LINE
  5
1E4
330
1F
100
AcDbEntity
  8
1
  6
DASHED
 62
     3
100
AcDbLine
 10
-640.749536380749
 20
-5995.84689393669
 30
0.0
 11
-429.549375487609
 21
-5995.84689393669
 31
0.0
  0
LINE
  5
1E5
330
1F
100
AcDbEntity
  8
1
  6
DASHED
 62
     3
100
AcDbLine
 10
-3013.84110799108
 20
-5995.84689393669
 30
0.0
 11
-3013.84110799108
 21
-6641.02181063041
 31
0.0
  0
LINE
  5
1E6
330
1F
100
AcDbEntity
  8
1
  6
DASHED
 62
     3
100
AcDbLine
 10
-429.549375487609
 20
-5995.84689393669
 30
0.0
 11
-429.549375487609
 21
-6641.02181063041
 31
0.0
  0
LINE
  5
1E7
330
1F
100
AcDbEntity
  8
1
  6
Continuous
 62
     7
100
AcDbLine
 10
-2668.47064016204
 20
-5995.84689393669
 30
0.0
 11
-2668.47064016204
 21
-6641.02181063041
 31
0.0
  0
LINE
  5
1E8
330
1F
100
AcDbEntity
  8
1
  6
Continuous
 62
     7
100
AcDbLine
 10
-2791.63193083721
 20
-5995.84689393669
 30
0.0
 11
-2668.47064016204
 21
-5995.84689393669
 31
0.0
  0
LINE
  5
1E9
330
1F
100
AcDbEntity
  8
1
  6
Continuous
 62
     7
100
AcDbLine
 10
-763.894197121986
 20
-5995.84689393669
 30
0.0
 11
-763.894197121986
 21
-6641.02181063041
 31
0.0
  0
LINE
  5
1EA
330
1F
100
AcDbEntity
  8
1
  6
Continuous
 62
     7
100
AcDbLine
 10
-640.749536380749
 20
-5995.84689393669
 30
0.0
 11
-763.894197121986
 21
-5995.84689393669
 31
0.0
  0
LINE
  5
1EB
330
1F
100
AcDbEntity
  8
1
  6
Continuous
 62
     7
100
AcDbLine
 10
-2791.63193083721
 20
-6641.02181063041
 30
0.0
 11
-2791.63193083721
 21
-5812.55176217573
 31
0.0
  0
LINE
  5
1EC
330
1F
100
AcDbEntity
  8
1
  6
Continuous
 62
     7
100
AcDbLine
 10
-640.749536380749
 20
-6641.02181063041
 30
0.0
 11
-2791.63193083721
 21
-6641.02181063041
 31
0.0
  0
LINE
  5
1ED
330
1F
100
AcDbEntity
  8
1
  6
Continuous
 62
     7
100
AcDbLine
 10
-640.749536380749
 20
-6641.02181063041
 30
0.0
 11
-640.749536380749
 21
-5812.55176217573
 31
0.0
  0
LINE
  5
1EE
330
1F
100
AcDbEntity
  8
1
  6
Continuous
 62
     7
100
AcDbLine
 10
-2791.63193083721
 20
-5812.55176217573
 30
0.0
 11
-640.749536380749
 21
-5812.55176217573
 31
0.0
  0
LINE
  5
1EF
330
1F
100
AcDbEntity
  8
1
  6
Continuous
 62
     7
100
AcDbLine
 10
-1447.36785165326
 20
-9919.14270544697
 30
0.0
 11
-885.359234536434
 21
-9919.14270544697
 31
0.0
  0
LINE
  5
1F0
330
1F
100
AcDbEntity
  8
1
  6
Continuous
 62
     7
100
AcDbLine
 10
-885.359234536434
 20
-9919.14270544697
 30
0.0
 11
-885.359234536434
 21
-10669.142705447
 31
0.0
  0
LINE
  5
1F1
330
1F
100
AcDbEntity
  8
1
  6
Continuous
 62
     7
100
AcDbLine
 10
-885.359234536434
 20
-10669.142705447
 30
0.0
 11
-1447.36785165326
 21
-10669.142705447
 31
0.0
  0
LINE
  5
1F2
330
1F
100
AcDbEntity
  8
1
  6
Continuous
 62
     7
100
AcDbLine
 10
-1447.36785165326
 20
-10669.142705447
 30
0.0
 11
-1447.36785165326
 21
-9919.14270544697
 31
0.0
  0
SPLINE
  5
1F3
330
1F
100
AcDbEntity
  8
$DDT_AUDIT_GENERATED__3B_
  6
Continuous
 62
     7
100
AcDbSpline
210
0.0
220
0.0
230
1.0
 70
     8
 71
     3
 72
     9
 73
     5
 74
     3
 42
0.000000001
 43
0.0000000001
 44
0.00000001
 40
0.0
 40
0.0
 40
0.0
 40
0.0
 40
26.89368022881381
 40
53.78735469136792
 40
53.78735469136792
 40
53.78735469136792
 40
53.78735469136792
 10
-1128.5205252116
 20
3992.201145411309
 30
0.0
 10
-1136.454368132453
 20
3996.620994081712
 30
0.0
 10
-1152.322052280072
 20
4005.460690456517
 30
0.0
 10
-1170.434866541026
 20
4006.820686624234
 30
0.0
 10
-1179.49127270274
 20
4007.500684625609
 30
0.0
 11
-1128.5205252116
 21
3992.201145411309
 31
0.0
 11
-1152.883336626966
 21
4003.59076596105
 31
0.0
 11
-1179.49127270274
 21
4007.500684625609
 31
0.0
  0
SPLINE
  5
1F4
330
1F
100
AcDbEntity
  8
$DDT_AUDIT_GENERATED__93_
  6
Continuous
 62
     7
100
AcDbSpline
210
0.0
220
0.0
230
1.0
 70
     8
 71
     3
 72
     9
 73
     5
 74
     3
 42
0.000000001
 43
0.0000000001
 44
0.00000001
 40
0.0
 40
0.0
 40
0.0
 40
0.0
 40
32.36275638420278
 40
64.7128601743229
 40
64.7128601743229
 40
64.7128601743229
 40
64.7128601743229
 10
-1085.698445345471
 20
4203.185117163379
 30
0.0
 10
-1097.157693892658
 20
4200.663455957055
 30
0.0
 10
-1120.071710851831
 20
4195.621119402341
 30
0.0
 10
-1125.704620876814
 20
4172.845964103143
 30
0.0
 10
-1128.5205252116
 20
4161.460612936529
 30
0.0
 11
-1085.698445345471
 21
4203.185117163379
 31
0.0
 11
-1115.7542246935
 21
4191.185195129735
 31
0.0
 11
-1128.5205252116
 21
4161.460612936529
 31
0.0
  0
SPLINE
  5
1F5
330
1F
100
AcDbEntity
  8
$DDT_AUDIT_GENERATED__93_
  6
AI_Linetype_21
 62
     3
100
AcDbSpline
210
0.0
220
0.0
230
1.0
 70
     8
 71
     3
 72
     9
 73
     5
 74
     3
 42
0.000000001
 43
0.0000000001
 44
0.00000001
 40
0.0
 40
0.0
 40
0.0
 40
0.0
 40
32.97136734679396
 40
65.94246356890115
 40
65.94246356890115
 40
65.94246356890115
 40
65.94246356890115
 10
-794.192333511151
 20
3960.321562070189
 30
0.0
 10
-796.9096258191316
 20
3971.96257008252
 30
0.0
 10
-802.344188105279
 20
3995.244490373204
 30
0.0
 10
-825.6240028612916
 20
4000.687984842415
 30
0.0
 10
-837.263862386209
 20
4003.409720879179
 30
0.0
 11
-794.192333511151
 21
3960.321562070189
 31
0.0
 11
-806.8055602458182
 21
3990.78494297759
 31
0.0
 11
-837.263862386209
 21
4003.409720879179
 31
0.0
  0
SPLINE
  5
1F6
330
1F
100
AcDbEntity
  8
$DDT_AUDIT_GENERATED__3B_
  6
Continuous
 62
     7
100
AcDbSpline
210
0.0
220
0.0
230
1.0
 70
     8
 71
     3
 72
     9
 73
     5
 74
     3
 42
0.000000001
 43
0.0000000001
 44
0.00000001
 40
0.0
 40
0.0
 40
0.0
 40
0.0
 40
26.89393741930022
 40
53.78787535360367
 40
53.78787535360367
 40
53.78787535360367
 40
53.78787535360367
 10
-2252.89019451522
 20
4007.500684625609
 30
0.0
 10
-2261.946859252975
 20
4006.821544966608
 30
0.0
 10
-2280.060188897663
 20
4005.463265616436
 30
0.0
 10
-2295.927357588488
 20
3996.621852180683
 30
0.0
 10
-2303.86094200636
 20
3992.201145411309
 30
0.0
 11
-2252.89019451522
 21
4007.500684625609
 31
0.0
 11
-2279.498648499395
 21
4003.592482153448
 31
0.0
 11
-2303.86094200636
 21
3992.201145411309
 31
0.0
  0
SPLINE
  5
1F7
330
1F
100
AcDbEntity
  8
$DDT_AUDIT_GENERATED__93_
  6
AI_Linetype_1
 62
     3
100
AcDbSpline
210
0.0
220
0.0
230
1.0
 70
     8
 71
     3
 72
     9
 73
     5
 74
     3
 42
0.000000001
 43
0.0000000001
 44
0.00000001
 40
0.0
 40
0.0
 40
0.0
 40
0.0
 40
34.06607454427246
 40
68.13170328330673
 40
68.13170328330673
 40
68.13170328330673
 40
68.13170328330673
 10
-2604.69644677462
 20
4007.500684625609
 30
0.0
 10
-2616.723959304733
 20
4004.693124250496
 30
0.0
 10
-2640.778826957507
 20
3999.0780402268
 30
0.0
 10
-2646.402807858104
 20
3975.025281905896
 30
0.0
 10
-2649.21477990146
 20
3962.998981432699
 30
0.0
 11
-2604.69644677462
 21
4007.500684625609
 31
0.0
 11
-2636.171202374936
 21
3994.46852459678
 31
0.0
 11
-2649.21477990146
 21
3962.998981432699
 31
0.0
  0
SPLINE
  5
1F8
330
1F
100
AcDbEntity
  8
$DDT_AUDIT_GENERATED__93_
  6
Continuous
 62
     7
100
AcDbSpline
210
0.0
220
0.0
230
1.0
 70
     8
 71
     3
 72
     9
 73
     5
 74
     3
 42
0.000000001
 43
0.0000000001
 44
0.00000001
 40
0.0
 40
0.0
 40
0.0
 40
0.0
 40
32.35870675516365
 40
64.730536757746
 40
64.730536757746
 40
64.730536757746
 40
64.730536757746
 10
-2303.86094200636
 20
4161.460612936529
 30
0.0
 10
-2306.677392946118
 20
4172.849839047505
 30
0.0
 10
-2312.311437066894
 20
4195.63291022155
 30
0.0
 10
-2335.23536438393
 20
4200.667374630976
 30
0.0
 10
-2346.69965180641
 20
4203.185117163379
 30
0.0
 11
-2303.86094200636
 21
4161.460612936529
 31
0.0
 11
-2316.631013163963
 21
4191.192938539216
 31
0.0
 11
-2346.69965180641
 21
4203.185117163379
 31
0.0
  0
SPLINE
  5
1F9
330
1F
100
AcDbEntity
  8
$DDT_AUDIT_GENERATED__545_
  6
Continuous
 62
     7
100
AcDbSpline
210
0.0
220
0.0
230
1.0
 70
    11
 71
     3
 72
   143
 73
   139
 74
   137
 42
0.000000001
 43
0.0000000001
 44
0.00000001
 40
0.0
 40
0.0
 40
0.0
 40
0.0
 40
14.40008177151609
 40
28.79957241788437
 40
47.56844988152607
 40
66.3376373294466
 40
85.1476393528743
 40
103.9575403092321
 40
122.7522343456492
 40
141.5469619593836
 40
160.3311406339965
 40
179.1153092228565
 40
193.5678509408969
 40
208.0203948415603
 40
222.4746812652288
 40
236.928967100033
 40
242.7103953488258
 40
248.4918236420758
 40
254.273126848497
 40
260.0544300423888
 40
266.2551426407283
 40
272.455855243091
 40
278.6566165321342
 40
284.8573778196627
 40
299.6438266019458
 40
314.4302753888306
 40
329.2165720377513
 40
344.0028686739442
 40
361.6507967635528
 40
379.2987249045796
 40
396.9472995089992
 40
414.5958739390173
 40
429.3832096973919
 40
444.170545898841
 40
458.9559563692255
 40
473.7413653791883
 40
479.940936839593
 40
486.1405098702979
 40
492.342415025377
 40
498.5443151357539
 40
503.3231292173117
 40
508.1019550132278
 40
512.8752113176436
 40
517.6484289167762
 40
526.4937792815941
 40
535.3394120659948
 40
544.234204829426
 40
553.1281300564185
 40
557.9479651640481
 40
562.7688216859642
 40
567.5036946857931
 40
572.2359516852545
 40
578.8632561777767
 40
585.5018484869103
 40
592.6281486097002
 40
599.7156586259167
 40
607.343189590693
 40
615.1608474788452
 40
621.7939472624173
 40
627.9811024742221
 40
632.1200544530449
 40
636.4431342048214
 40
641.3402575642874
 40
646.1511862429278
 40
656.3418491911544
 40
666.6132964466534
 40
676.1929113526636
 40
685.7311203449058
 40
695.1342438832005
 40
704.591654107125
 40
715.0327579046719
 40
725.3090595867291
 40
730.2772366125395
 40
735.4711245519452
 40
739.7182883069355
 40
743.5059259361382
 40
749.4029765929505
 40
756.5249024162403
 40
766.6163422487143
 40
775.9572739230481
 40
798.0244013329987
 40
820.7108102608352
 40
839.844595356505
 40
858.8281405279267
 40
887.2440656753138
 40
915.7533402449286
 40
945.6623174525664
 40
975.5387180025009
 40
1009.254023768647
 40
1042.981957955579
 40
1076.131482902579
 40
1109.275822188971
 40
1142.420161756513
 40
1175.569686986842
 40
1209.297620908075
 40
1243.012926401585
 40
1272.889325860905
 40
1302.798301966703
 40
1331.307577731857
 40
1359.723504188778
 40
1378.707052765192
 40
1397.8408407703
 40
1420.527246173299
 40
1442.594373243569
 40
1451.935305768267
 40
1462.026741375272
 40
1469.148668613067
 40
1475.045726285505
 40
1478.833374258258
 40
1483.080547430513
 40
1488.274425626501
 40
1493.242595386144
 40
1503.518803767941
 40
1513.959805043841
 40
1523.417308045634
 40
1532.820539832986
 40
1542.359167879716
 40
1551.939164013115
 40
1562.21012057249
 40
1572.40043574003
 40
1577.210879629196
 40
1582.107317597851
 40
1586.43066246447
 40
1590.570307273817
 40
1596.758238362788
 40
1603.391051449975
 40
1611.208864897048
 40
1618.837366894829
 40
1625.926215871348
 40
1633.053393631414
 40
1639.682103310886
 40
1646.299919851212
 40
1652.020250343109
 40
1657.744199066772
 40
1663.588468219391
 40
1669.43131902839
 40
1683.938431111265
 40
1698.447274970435
 40
1698.447274970435
 40
1698.447274970435
 40
1698.447274970435
 10
308.4318216423308
 20
-8984.137144770699
 30
0.0
 10
303.631867785522
 20
-8984.110190537165
 30
0.0
 10
294.0321571106056
 20
-8984.05628317682
 30
0.0
 10
278.1765913166816
 20
-8983.916821894285
 30
0.0
 10
260.8640885748974
 20
-8983.857317388016
 30
0.0
 10
242.0813858151522
 20
-8983.860035907754
 30
0.0
 10
223.2850612224834
 20
-8983.90044877522
 30
0.0
 10
204.4802479907853
 20
-8983.945376356354
 30
0.0
 10
185.6804751752053
 20
-8983.962772344828
 30
0.0
 10
166.889273994851
 20
-8983.961562233453
 30
0.0
 10
148.1015852830728
 20
-8983.950743431331
 30
0.0
 10
130.7612919580685
 20
-8983.940252076853
 30
0.0
 10
114.8648738973878
 20
-8983.937009018646
 30
0.0
 10
100.4117498501033
 20
-8983.937370422605
 30
0.0
 10
85.95804458975262
 20
-8983.939311770873
 30
0.0
 10
74.39471116482618
 20
-8983.940749529902
 30
0.0
 10
65.72233037302148
 20
-8983.94104309616
 30
0.0
 10
59.940943789861
 20
-8983.941034615169
 30
0.0
 10
54.15959889307257
 20
-8983.94091669341
 30
0.0
 10
48.23849256171038
 20
-8983.940780985975
 30
0.0
 10
42.17758309685015
 20
-8983.940729283559
 30
0.0
 10
35.97685426690897
 20
-8983.94073662323
 30
0.0
 10
29.77610920736583
 20
-8983.940772088697
 30
0.0
 10
20.71345208783241
 20
-8983.940818116253
 30
0.0
 10
8.788899135512594
 20
-8983.94076128446
 30
0.0
 10
-5.997498936543109
 20
-8983.94062749601
 30
0.0
 10
-20.78384629386719
 20
-8983.940572192276
 30
0.0
 10
-36.52402008594371
 20
-8983.940747854942
 30
0.0
 10
-53.21807103023274
 20
-8983.941382613553
 30
0.0
 10
-70.86621463079135
 20
-8983.942027666995
 30
0.0
 10
-88.51457369344115
 20
-8983.942104837908
 30
0.0
 10
-105.2094019524631
 20
-8983.941128469138
 30
0.0
 10
-120.9504839212785
 20
-8983.93885491072
 30
0.0
 10
-135.7371779601832
 20
-8983.937012661961
 30
0.0
 10
-150.5232299039411
 20
-8983.936916054177
 30
0.0
 10
-162.446693470902
 20
-8983.939420159346
 30
0.0
 10
-171.508210448662
 20
-8983.943349152609
 30
0.0
 10
-177.7085600490657
 20
-8983.945386265295
 30
0.0
 10
-183.9096863063607
 20
-8983.945301286938
 30
0.0
 10
-189.6372257151203
 20
-8983.941917156535
 30
0.0
 10
-194.8904012289574
 20
-8983.935037175033
 30
0.0
 10
-199.6673641215966
 20
-8983.929807208468
 30
0.0
 10
-204.4424650368803
 20
-8983.929615775698
 30
0.0
 10
-210.573070919962
 20
-8983.941133157772
 30
0.0
 10
-218.0610209643623
 20
-8983.98493593778
 30
0.0
 10
-226.9227990260683
 20
-8984.037037230335
 30
0.0
 10
-235.8009726955789
 20
-8984.04384600493
 30
0.0
 10
-243.3370900726875
 20
-8983.974983169011
 30
0.0
 10
-249.5140114471146
 20
-8983.84855452288
 30
0.0
 10
-254.3052731132393
 20
-8983.769729481817
 30
0.0
 10
-259.0682884097416
 20
-8983.766743138674
 30
0.0
 10
-264.4321139238514
 20
-8983.924305429924
 30
0.0
 10
-270.4146609172833
 20
-8984.420446990254
 30
0.0
 10
-277.1526933414351
 20
-8985.33538242109
 30
0.0
 10
-283.9947385123193
 20
-8986.567170436925
 30
0.0
 10
-291.1370879067499
 20
-8987.976859154933
 30
0.0
 10
-298.527470640836
 20
-8989.323846118754
 30
0.0
 10
-305.6067460586823
 20
-8991.450820576556
 30
0.0
 10
-311.8001690812524
 20
-8994.491715373948
 30
0.0
 10
-315.9714537409005
 20
-8998.732949422452
 30
0.0
 10
-317.0402661665758
 20
-9003.625940095979
 30
0.0
 10
-316.9818338513534
 20
-9008.081205767094
 30
0.0
 10
-316.474008954819
 20
-9012.735901028502
 30
0.0
 10
-315.5394530289126
 20
-9019.302310331135
 30
0.0
 10
-315.0367432069246
 20
-9027.727081586372
 30
0.0
 10
-315.155464024343
 20
-9037.743787245425
 30
0.0
 10
-315.6289687383156
 20
-9047.528172430752
 30
0.0
 10
-315.9399712678006
 20
-9057.034380139714
 30
0.0
 10
-315.6137033329303
 20
-9066.498922272924
 30
0.0
 10
-315.1457028881766
 20
-9076.254765267842
 30
0.0
 10
-315.0722119539279
 20
-9086.31590886866
 30
0.0
 10
-315.5633594275431
 20
-9094.878264534278
 30
0.0
 10
-316.4528783682026
 20
-9101.628094258584
 30
0.0
 10
-316.9487819644137
 20
-9106.42290208656
 30
0.0
 10
-317.1221730991739
 20
-9110.785599821402
 30
0.0
 10
-316.0744811573157
 20
-9115.625045830553
 30
0.0
 10
-310.281148534094
 20
-9118.171489254892
 30
0.0
 10
-302.6709811916056
 20
-9118.170327358004
 30
0.0
 10
-293.8223134384498
 20
-9116.969806016104
 30
0.0
 10
-280.4688801485328
 20
-9113.378356522288
 30
0.0
 10
-262.489692676133
 20
-9111.081890163736
 30
0.0
 10
-241.1599277480883
 20
-9110.970693562764
 30
0.0
 10
-220.9580879068328
 20
-9112.73860663691
 30
0.0
 10
-198.9052584053394
 20
-9115.095825856957
 30
0.0
 10
-173.6041445593544
 20
-9116.193181548533
 30
0.0
 10
-144.6568765636355
 20
-9116.079410876242
 30
0.0
 10
-115.233855240808
 20
-9115.343241068022
 30
0.0
 10
-84.07845644717965
 20
-9114.484094259573
 30
0.0
 10
-51.63837834642342
 20
-9114.164076395744
 30
0.0
 10
-18.10728430543421
 20
-9114.237675223823
 30
0.0
 10
15.23231839894888
 20
-9114.489408094556
 30
0.0
 10
48.37829579057286
 20
-9114.65857451259
 30
0.0
 10
81.52427326969934
 20
-9114.489406868925
 30
0.0
 10
114.8638760681864
 20
-9114.237673220068
 30
0.0
 10
148.3949700268459
 20
-9114.164074534194
 30
0.0
 10
180.8350475810564
 20
-9114.484093883566
 30
0.0
 10
211.9904454702143
 20
-9115.343243736344
 30
0.0
 10
241.4134664070645
 20
-9116.07941590302
 30
0.0
 10
270.360734894586
 20
-9116.193186502114
 30
0.0
 10
295.6618506705911
 20
-9115.09582718516
 30
0.0
 10
317.7146819926118
 20
-9112.738600980503
 30
0.0
 10
337.916522296249
 20
-9110.970682211308
 30
0.0
 10
359.2462871352402
 20
-9111.081876935765
 30
0.0
 10
377.2254733072503
 20
-9113.378351592408
 30
0.0
 10
390.5789016576202
 20
-9116.969815323138
 30
0.0
 10
399.4275682520718
 20
-9118.170341052186
 30
0.0
 10
407.0377385893246
 20
-9118.171495094077
 30
0.0
 10
412.8310722585837
 20
-9115.625044816752
 30
0.0
 10
413.878772114594
 20
-9110.785591685613
 30
0.0
 10
413.7053839148446
 20
-9106.422890081203
 30
0.0
 10
413.2094798187329
 20
-9101.628084880242
 30
0.0
 10
412.3199532572381
 20
-9094.878293299626
 30
0.0
 10
411.8287611969332
 20
-9086.31600912878
 30
0.0
 10
411.9021886157605
 20
-9076.254899009278
 30
0.0
 10
412.3701688928257
 20
-9066.499021294976
 30
0.0
 10
412.6965362069252
 20
-9057.034278856467
 30
0.0
 10
412.3857994373465
 20
-9047.527760783705
 30
0.0
 10
411.9125324583903
 20
-9037.743261258805
 30
0.0
 10
411.7937800420033
 20
-9027.726712430713
 30
0.0
 10
412.2961816966014
 20
-9019.302379371642
 30
0.0
 10
413.2302213181422
 20
-9012.736404129762
 30
0.0
 10
413.7378459141313
 20
-9008.082006837634
 30
0.0
 10
413.7962704744709
 20
-9003.62661666586
 30
0.0
 10
412.7279120660893
 20
-8998.733186314383
 30
0.0
 10
408.5597011571273
 20
-8994.48903835889
 30
0.0
 10
402.3680783592147
 20
-8991.44345366008
 30
0.0
 10
395.288626917217
 20
-8989.314964003876
 30
0.0
 10
387.896048616265
 20
-8987.974660699716
 30
0.0
 10
380.7492217772559
 20
-8986.582518239626
 30
0.0
 10
373.9071988888833
 20
-8985.365553727315
 30
0.0
 10
367.1755981559498
 20
-8984.451100466153
 30
0.0
 10
360.8737688998856
 20
-8983.904091393799
 30
0.0
 10
354.8545908456108
 20
-8983.701663763719
 30
0.0
 10
349.091200165535
 20
-8983.701118537718
 30
0.0
 10
343.2883619138689
 20
-8983.807095957129
 30
0.0
 10
334.5594808676098
 20
-8984.016567983514
 30
0.0
 10
322.9401520325828
 20
-8984.160610603296
 30
0.0
 10
313.2681241928486
 20
-8984.144967025777
 30
0.0
 10
308.4318216423293
 20
-8984.137144770699
 30
0.0
 11
308.4318216423308
 21
-8984.137144770699
 31
0.0
 11
294.0320117832268
 21
-8984.048649934966
 31
0.0
 11
279.6329250503105
 21
-8983.94079756928
 31
0.0
 11
260.8641867469322
 21
-8983.868522092054
 31
0.0
 11
242.0949994305369
 21
-8983.866300104426
 31
0.0
 11
223.2850297807447
 21
-8983.901198460118
 31
0.0
 11
204.4751705069879
 21
-8983.940797569265
 31
0.0
 11
185.6804859478929
 21
-8983.959672066729
 31
0.0
 11
166.8857583363558
 21
-8983.959959471553
 31
0.0
 11
148.1015819676126
 21
-8983.950652068883
 31
0.0
 11
129.3174159636731
 21
-8983.940797569274
 31
0.0
 11
114.8648746081137
 21
-8983.937560665465
 31
0.0
 11
100.4123307076347
 21
-8983.937633692773
 31
0.0
 11
85.95804437860446
 21
-8983.939287735546
 31
0.0
 11
71.50375862265558
 21
-8983.940797569268
 31
0.0
 11
65.72233037773128
 21
-8983.941009065155
 31
0.0
 11
59.94090208448589
 21
-8983.941016374587
 31
0.0
 11
54.15959887896641
 21
-8983.940914263096
 31
0.0
 11
48.37829568625228
 21
-8983.940797569274
 31
0.0
 11
42.1775830881864
 21
-8983.94073932274
 31
0.0
 11
35.97687048582398
 21
-8983.940741310867
 31
0.0
 11
29.77610919685391
 21
-8983.940771426593
 31
0.0
 11
23.57534790938049
 21
-8983.940797569277
 31
0.0
 11
8.788899127171595
 21
-8983.94075073161
 31
0.0
 11
-5.997549659302965
 21
-8983.940640576473
 31
0.0
 11
-20.78384630818973
 21
-8983.940608912462
 31
0.0
 11
-35.57014294317919
 21
-8983.940797569256
 31
0.0
 11
-53.21807102323335
 21
-8983.941378283209
 31
0.0
 11
-70.86599915554167
 21
-8983.94193301481
 31
0.0
 11
-88.5145737599565
 21
-8983.941919951472
 31
0.0
 11
-106.1631481542851
 21
-8983.940797569263
 31
0.0
 11
-120.9504837913979
 21
-8983.938903823388
 31
0.0
 11
-135.7378199062573
 21
-8983.937303553066
 31
0.0
 11
-150.5232303759197
 21
-8983.937449680947
 31
0.0
 11
-165.3086390068481
 21
-8983.940797569272
 31
0.0
 11
-171.5082099858909
 21
-8983.943240615441
 31
0.0
 11
-177.7077827576556
 21
-8983.945032440668
 31
0.0
 11
-183.9096879040758
 21
-8983.944704716492
 31
0.0
 11
-190.1115867837169
 21
-8983.940797569261
 31
0.0
 11
-194.8903975966881
 21
-8983.93520830058
 31
0.0
 11
-199.6692212145586
 21
-8983.93064573597
 31
0.0
 11
-204.4424774931522
 21
-8983.931142235815
 31
0.0
 11
-209.2156853268009
 21
-8983.940797569267
 31
0.0
 11
-218.06092535078
 21
-8983.984978952025
 31
0.0
 11
-226.9064464727949
 21
-8984.029424834307
 31
0.0
 11
-235.8012392323536
 21
-8984.029162368117
 31
0.0
 11
-244.6947254782339
 21
-8983.940797569272
 31
0.0
 11
-249.5137385843027
 21
-8983.851785501127
 31
0.0
 11
-254.3340912198886
 21
-8983.782085619478
 31
0.0
 11
-259.0689568831137
 21
-8983.790420829153
 31
0.0
 11
-263.7988240213093
 21
-8983.94079756927
 31
0.0
 11
-270.4043676032357
 21
-8984.477415518924
 31
0.0
 11
-276.9841663942753
 21
-8985.358979876388
 31
0.0
 11
-284.0035101239221
 21
-8986.589007130233
 31
0.0
 11
-290.9638210936837
 21
-8987.925745486924
 31
0.0
 11
-298.4374612366817
 21
-8989.450190183092
 31
0.0
 11
-305.8996782981935
 21
-8991.780660389566
 31
0.0
 11
-311.7481949679634
 21
-8994.910015834797
 31
0.0
 11
-315.8338872838891
 21
-8999.556305528233
 31
0.0
 11
-316.8702726603986
 21
-9003.56340283613
 31
0.0
 11
-316.9198491994427
 21
-9007.886198309858
 31
0.0
 11
-316.4442769897076
 21
-9012.760174948296
 31
0.0
 11
-315.8338872838784
 21
-9017.532224734168
 31
0.0
 11
-315.1593585389973
 21
-9027.700539358551
 31
0.0
 11
-315.2228228982913
 21
-9037.971790548223
 31
0.0
 11
-315.6046407037746
 21
-9047.543793312223
 31
0.0
 11
-315.8338872838743
 21
-9057.079246987232
 31
0.0
 11
-315.5933105856359
 21
-9066.479292472848
 31
0.0
 11
-315.2222591762315
 21
-9075.929420990393
 31
0.0
 11
-315.1852454037183
 21
-9086.37045918088
 31
0.0
 11
-315.833887283882
 21
-9096.62626924031
 31
0.0
 11
-316.4209365056489
 21
-9101.55964092423
 31
0.0
 11
-316.9204781455475
 21
-9106.729450406006
 31
0.0
 11
-316.9299408750775
 21
-9110.97660361951
 31
0.0
 11
-315.8338872838818
 21
-9114.60218844624
 31
0.0
 11
-310.7445304303197
 21
-9117.581056228903
 31
0.0
 11
-303.6372403742861
 21
-9118.037406414549
 31
0.0
 11
-293.632257687892
 21
-9116.719271619699
 31
0.0
 11
-284.5344028098893
 21
-9114.602188446232
 31
0.0
 11
-262.6792116355636
 21
-9111.551167164656
 31
0.0
 11
-239.993750824328
 21
-9111.343759779666
 31
0.0
 11
-220.9157677506101
 21
-9112.803997406561
 31
0.0
 11
-202.0175801057268
 21
-9114.602188446226
 31
0.0
 11
-173.6345069606785
 21
-9115.968190212809
 31
0.0
 11
-145.1252364864042
 21
-9115.983471293654
 31
0.0
 11
-115.2233937137244
 21
-9115.330235956322
 31
0.0
 11
-85.35586524811009
 21
-9114.602188446243
 31
0.0
 11
-51.64259324751699
 21
-9114.231872472277
 31
0.0
 11
-17.91467890874561
 21
-9114.268463139982
 31
0.0
 11
15.23419698723277
 21
-9114.475902402863
 31
0.0
 11
48.37829568625
 21
-9114.602188446243
 31
0.0
 11
81.52239466204634
 21
-9114.475901252885
 31
0.0
 11
114.6712708370173
 21
-9114.268461291404
 31
0.0
 11
148.3991849103966
 21
-9114.231870845832
 31
0.0
 11
182.1124566205889
 21
-9114.602188446239
 31
0.0
 11
211.9799839325338
 21
-9115.330238536491
 31
0.0
 11
241.8818255585143
 21
-9115.983475925568
 31
0.0
 11
270.3910972284226
 21
-9115.968194506597
 31
0.0
 11
298.7741714782068
 21
-9114.602188446246
 31
0.0
 11
317.6723620145004
 21
-9112.803991844623
 31
0.0
 11
336.7503476233559
 21
-9111.343749211128
 31
0.0
 11
359.4358049163963
 21
-9111.551155942136
 31
0.0
 11
381.2909941823758
 21
-9114.602188446232
 31
0.0
 11
390.3888479317255
 21
-9116.719280224943
 31
0.0
 11
400.3938260257916
 21
-9118.037417533229
 31
0.0
 11
407.5011171693472
 21
-9117.581062201461
 31
0.0
 11
412.5904786563763
 21
-9114.602188446226
 31
0.0
 11
413.686538937266
 21
-9110.97659483605
 31
0.0
 11
413.6770788871094
 21
-9106.729432199354
 31
0.0
 11
413.1775365940254
 21
-9101.559632569557
 31
0.0
 11
412.5904786563765
 21
-9096.62626924029
 31
0.0
 11
411.9417927440401
 21
-9086.370555452693
 31
0.0
 11
411.9787483550032
 21
-9075.92961957867
 31
0.0
 11
412.349794579529
 21
-9066.479398008394
 31
0.0
 11
412.59047865637
 21
-9057.079246987229
 31
0.0
 11
412.3614627461019
 21
-9047.543368594273
 31
0.0
 11
411.9798330268996
 21
-9037.970976799561
 31
0.0
 11
411.916337363812
 21
-9027.700216509127
 31
0.0
 11
412.5904786563808
 21
-9017.532224734161
 31
0.0
 11
413.2005276206781
 21
-9012.760620111349
 31
0.0
 11
413.6758687159942
 21
-9007.887309570056
 31
0.0
 11
413.6263623475831
 21
-9003.564248159073
 31
0.0
 11
412.5904786563906
 21
-8999.55630552823
 31
0.0
 11
408.5070391109774
 21
-8994.907003145665
 31
0.0
 11
402.6607524501852
 21
-8991.774090486686
 31
0.0
 11
395.1986205163898
 21
-8989.442826002734
 31
0.0
 11
387.7224912078995
 21
-8987.925745486926
 31
0.0
 11
380.75798076999
 21
-8986.603862674054
 31
0.0
 11
373.7355739054378
 21
-8985.386297623765
 31
0.0
 11
367.1658674630848
 21
-8984.503829903977
 31
0.0
 11
360.5720453277266
 21
-8983.940797569281
 31
0.0
 11
354.8554664153459
 21
-8983.733658784808
 31
0.0
 11
349.1315378950526
 21
-8983.718450683235
 31
0.0
 11
343.2880285487196
 21
-8983.812686811018
 31
0.0
 11
337.4465823913375
 21
-8983.940797569277
 31
0.0
 11
322.9406617676369
 21
-8984.126721859375
 31
0.0
 11
308.4318216423293
 21
-8984.137144770699
 31
0.0
  0
SPLINE
  5
1FA
330
1F
100
AcDbEntity
  8
$DDT_AUDIT_GENERATED__93_
  6
AI_Linetype_26
 62
     3
100
AcDbSpline
210
0.0
220
0.0
230
1.0
 70
     8
 71
     3
 72
     9
 73
     5
 74
     3
 42
0.000000001
 43
0.0000000001
 44
0.00000001
 40
0.0
 40
0.0
 40
0.0
 40
0.0
 40
34.0604193349883
 40
68.12083866998196
 40
68.12083866998196
 40
68.12083866998196
 40
68.12083866998196
 10
-2969.33940479816
 20
-4666.21127208491
 30
0.0
 10
-2981.364925768924
 20
-4669.019652176786
 30
0.0
 10
-3005.415967700882
 20
-4674.636412375106
 30
0.0
 10
-3011.032727899204
 20
-4698.687454307064
 30
0.0
 10
-3013.84110799108
 20
-4710.71297527783
 30
0.0
 11
-2969.33940479816
 21
-4666.21127208491
 31
0.0
 11
-3000.807397274542
 21
-4679.244982801443
 31
0.0
 11
-3013.84110799108
 21
-4710.71297527783
 31
0.0
  0
SPLINE
  5
1FB
330
1F
100
AcDbEntity
  8
$DDT_AUDIT_GENERATED__93_
  6
AI_Linetype_21
 62
     3
100
AcDbSpline
210
0.0
220
0.0
230
1.0
 70
     8
 71
     3
 72
     9
 73
     5
 74
     3
 42
0.000000001
 43
0.0000000001
 44
0.00000001
 40
0.0
 40
0.0
 40
0.0
 40
0.0
 40
32.97136734679375
 40
65.94246356890102
 40
65.94246356890102
 40
65.94246356890102
 40
65.94246356890102
 10
-674.192333511151
 20
1069.13697114243
 30
0.0
 10
-676.9096258191317
 20
1080.77797915476
 30
0.0
 10
-682.344188105279
 20
1104.059899445444
 30
0.0
 10
-705.6240028612917
 20
1109.503393914655
 30
0.0
 10
-717.263862386209
 20
1112.22512995142
 30
0.0
 11
-674.192333511151
 21
1069.13697114243
 31
0.0
 11
-686.8055602458182
 21
1099.600352049831
 31
0.0
 11
-717.263862386209
 21
1112.22512995142
 31
0.0
  0
SPLINE
  5
1FC
330
1F
100
AcDbEntity
  8
$DDT_AUDIT_GENERATED__93_
  6
AI_Linetype_16
 62
     3
100
AcDbSpline
210
0.0
220
0.0
230
1.0
 70
     8
 71
     3
 72
     9
 73
     5
 74
     3
 42
0.000000001
 43
0.0000000001
 44
0.00000001
 40
0.0
 40
0.0
 40
0.0
 40
0.0
 40
32.97109622210528
 40
65.94246356889067
 40
65.94246356889067
 40
65.94246356889067
 40
65.94246356889067
 10
-429.549375487609
 20
-4713.3737647064
 30
0.0
 10
-432.2711115243774
 20
-4701.733905181485
 30
0.0
 10
-437.7146059935956
 20
-4678.454090425481
 30
0.0
 10
-460.9965262842701
 20
-4673.019528139326
 30
0.0
 10
-472.637534296595
 20
-4670.30223583134
 30
0.0
 11
-429.549375487609
 21
-4713.3737647064
 31
0.0
 11
-442.1741533892059
 21
-4682.915462566015
 31
0.0
 11
-472.637534296595
 21
-4670.30223583134
 31
0.0
  0
SPLINE
  5
1FD
330
1F
100
AcDbEntity
  8
$DDT_AUDIT_GENERATED__93_
  6
Continuous
 62
     7
100
AcDbSpline
210
0.0
220
0.0
230
1.0
 70
     8
 71
     3
 72
     9
 73
     5
 74
     3
 42
0.000000001
 43
0.0000000001
 44
0.00000001
 40
0.0
 40
0.0
 40
0.0
 40
0.0
 40
32.349931638653
 40
64.71324949168235
 40
64.71324949168235
 40
64.71324949168235
 40
64.71324949168235
 10
-2546.15747611724
 20
-1620.97103094868
 30
0.0
 10
-2548.982429167124
 20
-1609.588047701141
 30
0.0
 10
-2554.633504230544
 20
-1586.817371003283
 30
0.0
 10
-2577.551465081566
 20
-1581.792661183609
 30
0.0
 10
-2589.01281585122
 20
-1579.27978658969
 30
0.0
 11
-2546.15747611724
 21
-1620.97103094868
 31
0.0
 11
-2558.947271041115
 21
-1591.256737703201
 31
0.0
 11
-2589.01281585122
 21
-1579.27978658969
 31
0.0
  0
SPLINE
  5
1FE
330
1F
100
AcDbEntity
  8
$DDT_AUDIT_GENERATED__93_
  6
AI_Linetype_11
 62
     3
100
AcDbSpline
210
0.0
220
0.0
230
1.0
 70
     8
 71
     3
 72
     9
 73
     5
 74
     3
 42
0.000000001
 43
0.0000000001
 44
0.00000001
 40
0.0
 40
0.0
 40
0.0
 40
0.0
 40
34.06201975881692
 40
68.12421449156582
 40
68.12421449156582
 40
68.12421449156582
 40
68.12421449156582
 10
-2847.02624075335
 20
-1774.96421912745
 30
0.0
 10
-2859.05328899716
 20
-1777.77102403288
 30
0.0
 10
-2883.107447257218
 20
-1783.384648276651
 30
0.0
 10
-2888.7211069153
 20
-1807.438810375268
 30
0.0
 10
-2891.52794394627
 20
-1819.46592232037
 30
0.0
 11
-2847.02624075335
 21
-1774.96421912745
 31
0.0
 11
-2878.497284513547
 21
-1787.994744633145
 31
0.0
 11
-2891.52794394627
 21
-1819.46592232037
 31
0.0
  0
SPLINE
  5
1FF
330
1F
100
AcDbEntity
  8
$DDT_AUDIT_GENERATED__93_
  6
Continuous
 62
     7
100
AcDbSpline
210
0.0
220
0.0
230
1.0
 70
     8
 71
     3
 72
    43
 73
    39
 74
    37
 42
0.000000001
 43
0.0000000001
 44
0.00000001
 40
0.0
 40
0.0
 40
0.0
 40
0.0
 40
6.708666673425563
 40
13.41733260094542
 40
15.05118643213141
 40
16.68479489659258
 40
18.31851598578995
 40
19.95229624390666
 40
21.57525489930245
 40
23.19819955167815
 40
24.82112662622638
 40
26.44405410429239
 40
28.06587734603793
 40
29.68770291294171
 40
31.30954608353608
 40
32.93138745130793
 40
34.55972779016412
 40
36.18807182067948
 40
37.81637688659673
 40
39.44467979138908
 40
41.08654668156314
 40
42.72841853319404
 40
44.37043675327678
 40
46.01245654591971
 40
47.67654812085851
 40
49.34064705120112
 40
51.00436908314606
 40
52.6680759923544
 40
54.3642562962531
 40
56.06045399931032
 40
57.75771665849014
 40
59.45500913696396
 40
61.20098513937498
 40
62.94702602211814
 40
64.6912026329264
 40
66.43496876777017
 40
66.93393607213545
 40
67.43290337541524
 40
67.43290337541524
 40
67.43290337541524
 40
67.43290337541524
 10
-2668.47064016204
 20
-4512.25134377399
 30
0.0
 10
-2668.574857120683
 20
-4510.012768852862
 30
0.0
 10
-2668.783291041063
 20
-4505.535619260706
 30
0.0
 10
-2670.069110711842
 20
-4500.645216323876
 30
0.0
 10
-2671.2045996041
 20
-4497.520473058654
 30
0.0
 10
-2671.82578972945
 20
-4496.008731157847
 30
0.0
 10
-2672.506191408876
 20
-4494.523054638878
 30
0.0
 10
-2673.243654706223
 20
-4493.068747288636
 30
0.0
 10
-2674.036268376119
 20
-4491.647898974336
 30
0.0
 10
-2674.882037910844
 20
-4490.262271381961
 30
0.0
 10
-2675.781129383573
 20
-4488.91065304163
 30
0.0
 10
-2676.73178412964
 20
-4487.595253577818
 30
0.0
 10
-2677.7324274684
 20
-4486.317940840323
 30
0.0
 10
-2678.78123301446
 20
-4485.080349112974
 30
0.0
 10
-2679.876663528335
 20
-4483.883825682547
 30
0.0
 10
-2681.018494907744
 20
-4482.72844559001
 30
0.0
 10
-2682.205190398742
 20
-4481.616021656875
 30
0.0
 10
-2683.435035279041
 20
-4480.548211246969
 30
0.0
 10
-2684.704560548331
 20
-4479.527917958654
 30
0.0
 10
-2686.015520615056
 20
-4478.553863488556
 30
0.0
 10
-2687.366405996509
 20
-4477.627946036691
 30
0.0
 10
-2688.755472966814
 20
-4476.751765461434
 30
0.0
 10
-2690.176887882507
 20
-4475.92899988351
 30
0.0
 10
-2691.63504829964
 20
-4475.157304813667
 30
0.0
 10
-2693.128261578546
 20
-4474.438660718699
 30
0.0
 10
-2694.654692684625
 20
-4473.775198634121
 30
0.0
 10
-2696.205520288536
 20
-4473.171300731781
 30
0.0
 10
-2697.788784474837
 20
-4472.624694970471
 30
0.0
 10
-2699.402822735229
 20
-4472.138058024384
 30
0.0
 10
-2701.045396709208
 20
-4471.711868531393
 30
0.0
 10
-2702.703338606701
 20
-4471.348381930066
 30
0.0
 10
-2704.389914369413
 20
-4471.043654625892
 30
0.0
 10
-2706.1026694916
 20
-4470.798652776684
 30
0.0
 10
-2707.839510787777
 20
-4470.620881755534
 30
0.0
 10
-2709.581685803122
 20
-4470.518254928523
 30
0.0
 10
-2710.911146854937
 20
-4470.500817512491
 30
0.0
 10
-2711.824872731291
 20
-4470.518828289372
 30
0.0
 10
-2712.157474865125
 20
-4470.524169123104
 30
0.0
 10
-2712.32377593174
 20
-4470.52683954714
 30
0.0
 11
-2668.47064016204
 21
-4512.25134377399
 31
0.0
 11
-2669.017742559839
 21
-4505.565022848338
 31
0.0
 11
-2670.655813480259
 21
-4499.059415866055
 31
0.0
 11
-2671.215184879074
 21
-4497.524299590054
 31
0.0
 11
-2671.835644679539
 21
-4496.013105938633
 31
0.0
 11
-2672.515961043654
 21
-4494.527772897564
 31
0.0
 11
-2673.254822704288
 21
-4493.07061079982
 31
0.0
 11
-2674.0454238942
 21
-4491.653238387068
 31
0.0
 11
-2674.890928959631
 21
-4490.267933175293
 31
0.0
 11
-2675.789759648376
 21
-4488.91663909812
 31
0.0
 11
-2676.740373706057
 21
-4487.601258349778
 31
0.0
 11
-2677.740491132395
 21
-4486.324514146077
 31
0.0
 11
-2678.788999292973
 21
-4485.087198985207
 31
0.0
 11
-2679.884142965582
 21
-4483.89093998023
 31
0.0
 11
-2681.024161536388
 21
-4482.737368534215
 31
0.0
 11
-2682.212119047061
 21
-4481.623703767512
 31
0.0
 11
-2683.441660237665
 21
-4480.556121104237
 31
0.0
 11
-2684.710863680241
 21
-4479.536072081081
 31
0.0
 11
-2686.017881246138
 21
-4478.564951371395
 31
0.0
 11
-2687.372139379293
 21
-4477.636667042954
 31
0.0
 11
-2688.760815259851
 21
-4476.760697593411
 31
0.0
 11
-2690.18192049874
 21
-4475.93808970645
 31
0.0
 11
-2691.633227886139
 21
-4475.170016879614
 31
0.0
 11
-2693.132709302853
 21
-4474.44838244906
 31
0.0
 11
-2694.658894705465
 21
-4473.785070028334
 31
0.0
 11
-2696.209245672368
 21
-4473.181428678111
 31
0.0
 11
-2697.781896507224
 21
-4472.638575077137
 31
0.0
 11
-2699.40578715384
 21
-4472.148670196634
 31
0.0
 11
-2701.047552664191
 21
-4471.722415979384
 31
0.0
 11
-2702.705379608636
 21
-4471.35867107213
 31
0.0
 11
-2704.375582160246
 21
-4471.05663598225
 31
0.0
 11
-2706.104083830724
 21
-4470.810233509672
 31
0.0
 11
-2707.841141623629
 21
-4470.633346563682
 31
0.0
 11
-2709.582344151087
 21
-4470.531533930339
 31
0.0
 11
-2711.325979896031
 21
-4470.51020961322
 31
0.0
 11
-2711.824877913888
 21
-4470.518524580185
 31
0.0
 11
-2712.32377593174
 21
-4470.52683954714
 31
0.0
  0
SPLINE
  5
200
330
1F
100
AcDbEntity
  8
$DDT_AUDIT_GENERATED__93_
  6
Continuous
 62
     7
100
AcDbSpline
210
0.0
220
0.0
230
1.0
 70
     8
 71
     3
 72
     9
 73
     5
 74
     3
 42
0.000000001
 43
0.0000000001
 44
0.00000001
 40
0.0
 40
0.0
 40
0.0
 40
0.0
 40
32.03170345148796
 40
64.05120150233098
 40
64.05120150233098
 40
64.05120150233098
 40
64.05120150233098
 10
-721.770574480858
 20
-4470.52683954714
 30
0.0
 10
-733.0609023523742
 20
-4473.169214967979
 30
0.0
 10
-755.637256005084
 20
-4478.452958970231
 30
0.0
 10
-761.1422330917202
 20
-4500.975559492792
 30
0.0
 10
-763.894197121986
 20
-4512.23471384006
 30
0.0
 11
-721.770574480858
 21
-4470.52683954714
 31
0.0
 11
-751.3720872617873
 21
-4482.76532259559
 31
0.0
 11
-763.894197121986
 21
-4512.23471384006
 31
0.0
  0
SPLINE
  5
201
330
1F
100
AcDbEntity
  8
$DDT_AUDIT_GENERATED__93_
  6
AI_Linetype_6
 62
     3
100
AcDbSpline
210
0.0
220
0.0
230
1.0
 70
     8
 71
     3
 72
     9
 73
     5
 74
     3
 42
0.000000001
 43
0.0000000001
 44
0.00000001
 40
0.0
 40
0.0
 40
0.0
 40
0.0
 40
32.99098996428709
 40
65.9818051899575
 40
65.9818051899575
 40
65.9818051899575
 40
65.9818051899575
 10
-551.862539532415
 20
-1822.12671174894
 30
0.0
 10
-554.5831087575394
 20
-1810.478970217613
 30
0.0
 10
-560.0242328127129
 20
-1787.183548857441
 30
0.0
 10
-583.3196503489017
 20
-1781.742460148459
 30
0.0
 10
-594.967328275331
 20
-1779.02192300603
 30
0.0
 11
-551.862539532415
 21
-1822.12671174894
 31
0.0
 11
-564.4878442272011
 21
-1791.647093961966
 31
0.0
 11
-594.967328275331
 21
-1779.02192300603
 31
0.0
  0
SPLINE
  5
202
330
1F
100
AcDbEntity
  8
$DDT_AUDIT_GENERATED__93_
  6
Continuous
 62
     7
100
AcDbSpline
210
0.0
220
0.0
230
1.0
 70
     8
 71
     3
 72
     9
 73
     5
 74
     3
 42
0.000000001
 43
0.0000000001
 44
0.00000001
 40
0.0
 40
0.0
 40
0.0
 40
0.0
 40
32.35225837313263
 40
64.69130322835541
 40
64.69130322835541
 40
64.69130322835541
 40
64.69130322835541
 10
-843.368651366735
 20
-1579.27978658969
 30
0.0
 10
-854.8261826125446
 20
-1581.794287008405
 30
0.0
 10
-877.7365655360206
 20
-1586.822260872062
 30
0.0
 10
-883.3730597659832
 20
-1609.589657704271
 30
0.0
 10
-886.190731232864
 20
-1620.97103094868
 30
0.0
 11
-843.368651366735
 21
-1579.27978658969
 31
0.0
 11
-873.4210086097146
 21
-1591.25995546287
 31
0.0
 11
-886.190731232864
 21
-1620.97103094868
 31
0.0
  0
SPLINE
  5
203
330
1F
100
AcDbEntity
  8
$DDT_AUDIT_GENERATED__93_
  6
Continuous
 62
     7
100
AcDbSpline
210
0.0
220
0.0
230
1.0
 70
     8
 71
     3
 72
     9
 73
     5
 74
     3
 42
0.000000001
 43
0.0000000001
 44
0.00000001
 40
0.0
 40
0.0
 40
0.0
 40
0.0
 40
32.3627563842031
 40
64.71286017432354
 40
64.71286017432354
 40
64.71286017432354
 40
64.71286017432354
 10
-965.698445345471
 20
1312.00052623562
 30
0.0
 10
-977.157693892658
 20
1309.478865029296
 30
0.0
 10
-1000.071710851831
 20
1304.436528474582
 30
0.0
 10
-1005.704620876815
 20
1281.661373175386
 30
0.0
 10
-1008.5205252116
 20
1270.27602200877
 30
0.0
 11
-965.698445345471
 21
1312.00052623562
 31
0.0
 11
-995.7542246935
 21
1300.000604201976
 31
0.0
 11
-1008.5205252116
 21
1270.27602200877
 31
0.0
  0
SPLINE
  5
204
330
1F
100
AcDbEntity
  8
$DDT_AUDIT_GENERATED__93_
  6
Continuous
 62
     7
100
AcDbSpline
210
0.0
220
0.0
230
1.0
 70
     8
 71
     3
 72
     9
 73
     5
 74
     3
 42
0.000000001
 43
0.0000000001
 44
0.00000001
 40
0.0
 40
0.0
 40
0.0
 40
0.0
 40
32.3587067551647
 40
64.73053675774679
 40
64.73053675774679
 40
64.73053675774679
 40
64.73053675774679
 10
-2423.86094200636
 20
1270.27602200877
 30
0.0
 10
-2426.677392946119
 20
1281.665248119746
 30
0.0
 10
-2432.311437066893
 20
1304.448319293791
 30
0.0
 10
-2455.23536438393
 20
1309.482783703217
 30
0.0
 10
-2466.69965180641
 20
1312.00052623562
 30
0.0
 11
-2423.86094200636
 21
1270.27602200877
 31
0.0
 11
-2436.631013163963
 21
1300.008347611458
 31
0.0
 11
-2466.69965180641
 21
1312.00052623562
 31
0.0
  0
SPLINE
  5
205
330
1F
100
AcDbEntity
  8
$DDT_AUDIT_GENERATED__93_
  6
AI_Linetype_1
 62
     3
100
AcDbSpline
210
0.0
220
0.0
230
1.0
 70
     8
 71
     3
 72
     9
 73
     5
 74
     3
 42
0.000000001
 43
0.0000000001
 44
0.00000001
 40
0.0
 40
0.0
 40
0.0
 40
0.0
 40
34.06607454427246
 40
68.13170328330652
 40
68.13170328330652
 40
68.13170328330652
 40
68.13170328330652
 10
-2724.69644677462
 20
1116.31609369785
 30
0.0
 10
-2736.723959304734
 20
1113.508533322737
 30
0.0
 10
-2760.778826957507
 20
1107.893449299041
 30
0.0
 10
-2766.402807858104
 20
1083.840690978137
 30
0.0
 10
-2769.21477990146
 20
1071.81439050494
 30
0.0
 11
-2724.69644677462
 21
1116.31609369785
 31
0.0
 11
-2756.171202374936
 21
1103.283933669021
 31
0.0
 11
-2769.21477990146
 21
1071.81439050494
 31
0.0
  0
SPLINE
  5
206
330
1F
100
AcDbEntity
  8
$DDT_AUDIT_GENERATED__93_
  6
Continuous
 62
     1
100
AcDbSpline
210
0.0
220
0.0
230
1.0
 70
     8
 71
     3
 72
     9
 73
     5
 74
     3
 42
0.000000001
 43
0.0000000001
 44
0.00000001
 40
0.0
 40
0.0
 40
0.0
 40
0.0
 40
102.1175932057054
 40
204.2351864114029
 40
204.2351864114029
 40
204.2351864114029
 40
204.2351864114029
 10
508.678236895794
 20
-4795.67530771901
 30
0.0
 10
508.835534675883
 20
-4761.635990683245
 30
0.0
 10
509.1501302160612
 20
-4693.557356611719
 30
0.0
 10
508.4918493746916
 20
-4625.481178298506
 30
0.0
 10
508.162708944007
 20
-4591.44308914195
 30
0.0
 11
508.678236895794
 21
-4795.67530771901
 31
0.0
 11
508.9069111306742
 21
-4693.557970551269
 31
0.0
 11
508.162708944007
 21
-4591.44308914195
 31
0.0
  0
SPLINE
  5
207
330
1F
100
AcDbEntity
  8
$DDT_AUDIT_GENERATED__93_
  6
Continuous
 62
     7
100
AcDbSpline
210
0.0
220
0.0
230
1.0
 70
     8
 71
     3
 72
     9
 73
     5
 74
     3
 42
0.000000001
 43
0.0000000001
 44
0.00000001
 40
0.0
 40
0.0
 40
0.0
 40
0.0
 40
54.76816526614794
 40
109.5363305310659
 40
109.5363305310659
 40
109.5363305310659
 40
109.5363305310659
 10
354.818088188445
 20
-4364.67731009165
 30
0.0
 10
350.6139980016076
 20
-4346.903619981022
 30
0.0
 10
342.2058176087054
 20
-4311.356239765281
 30
0.0
 10
330.9906759658082
 20
-4276.592259330761
 30
0.0
 10
325.383105134833
 20
-4259.21026911651
 30
0.0
 11
354.818088188445
 21
-4364.67731009165
 31
0.0
 11
341.5040773057283
 21
-4311.552089707503
 31
0.0
 11
325.383105134833
 21
-4259.21026911651
 31
0.0
  0
SPLINE
  5
208
330
1F
100
AcDbEntity
  8
$DDT_AUDIT_GENERATED__93_
  6
Continuous
 62
     7
100
AcDbSpline
210
0.0
220
0.0
230
1.0
 70
     8
 71
     3
 72
    11
 73
     7
 74
     5
 42
0.000000001
 43
0.0000000001
 44
0.00000001
 40
0.0
 40
0.0
 40
0.0
 40
0.0
 40
19.50039767989349
 40
39.00079846889857
 40
53.62258872033668
 40
68.24437994552588
 40
68.24437994552588
 40
68.24437994552588
 40
68.24437994552588
 10
368.454634009891
 20
-4233.99928928075
 30
0.0
 10
362.8093405653594
 20
-4230.116354900571
 30
0.0
 10
351.5187527709596
 20
-4222.350485533066
 30
0.0
 10
332.3354968727043
 20
-4229.573497485561
 30
0.0
 10
323.1085382903572
 20
-4244.33094796272
 30
0.0
 10
324.6249161654885
 20
-4254.250495288521
 30
0.0
 10
325.383105134833
 20
-4259.21026911651
 30
0.0
 11
368.454634009891
 21
-4233.99928928075
 31
0.0
 11
350.8533077643781
 21
-4225.605313809015
 31
0.0
 11
332.4674569883997
 21
-4232.103476812891
 31
0.0
 11
324.8715437253251
 21
-4244.597429430384
 31
0.0
 11
325.383105134833
 21
-4259.21026911651
 31
0.0
  0
SPLINE
  5
209
330
1F
100
AcDbEntity
  8
$DDT_AUDIT_GENERATED__93_
  6
Continuous
 62
     1
100
AcDbSpline
210
0.0
220
0.0
230
1.0
 70
     8
 71
     3
 72
     9
 73
     5
 74
     3
 42
0.000000001
 43
0.0000000001
 44
0.00000001
 40
0.0
 40
0.0
 40
0.0
 40
0.0
 40
195.0502433716523
 40
390.1004845855031
 40
390.1004845855031
 40
390.1004845855031
 40
390.1004845855031
 10
508.162708944007
 20
-4591.44308914195
 30
0.0
 10
501.1672430050764
 20
-4525.502429989241
 30
0.0
 10
487.1763111859331
 20
-4393.621112418714
 30
0.0
 10
408.0285262617679
 20
-4287.206563460969
 30
0.0
 10
368.454634009891
 20
-4233.99928928075
 30
0.0
 11
508.162708944007
 21
-4591.44308914195
 31
0.0
 11
470.8870976613977
 21
-4399.987803909214
 31
0.0
 11
368.454634009891
 21
-4233.99928928075
 31
0.0
  0
SPLINE
  5
20A
330
1F
100
AcDbEntity
  8
$DDT_AUDIT_GENERATED__93_
  6
Continuous
 62
     7
100
AcDbSpline
210
0.0
220
0.0
230
1.0
 70
     8
 71
     3
 72
     9
 73
     5
 74
     3
 42
0.000000001
 43
0.0000000001
 44
0.00000001
 40
0.0
 40
0.0
 40
0.0
 40
0.0
 40
155.2663126383624
 40
310.5326252771065
 40
310.5326252771065
 40
310.5326252771065
 40
310.5326252771065
 10
389.474870495633
 20
-4796.3072452083
 30
0.0
 10
388.8501959530098
 20
-4744.535924388356
 30
0.0
 10
387.6008468477858
 20
-4640.993282749072
 30
0.0
 10
378.7059362565629
 20
-4537.825845655766
 30
0.0
 10
374.25848095097
 20
-4486.24212710966
 30
0.0
 11
389.474870495633
 21
-4796.3072452083
 31
0.0
 11
385.6894564862802
 21
-4641.087083885203
 31
0.0
 11
374.25848095097
 21
-4486.24212710966
 31
0.0
  0
SPLINE
  5
20B
330
1F
100
AcDbEntity
  8
$DDT_AUDIT_GENERATED__93_
  6
Continuous
 62
     7
100
AcDbSpline
210
0.0
220
0.0
230
1.0
 70
     8
 71
     3
 72
     9
 73
     5
 74
     3
 42
0.000000001
 43
0.0000000001
 44
0.00000001
 40
0.0
 40
0.0
 40
0.0
 40
0.0
 40
61.58255976869654
 40
123.1651195258843
 40
123.1651195258843
 40
123.1651195258843
 40
123.1651195258843
 10
374.25848095097
 20
-4486.24212710966
 30
0.0
 10
371.9325787432856
 20
-4465.835133184964
 30
0.0
 10
367.2807743085727
 20
-4425.021145342243
 30
0.0
 10
358.9723169014566
 20
-4384.791921839444
 30
0.0
 10
354.818088188445
 20
-4364.67731009165
 30
0.0
 11
374.25848095097
 21
-4486.24212710966
 31
0.0
 11
366.3666110747409
 21
-4425.167336421859
 31
0.0
 11
354.818088188445
 21
-4364.67731009165
 31
0.0
  0
SPLINE
  5
20C
330
1F
100
AcDbEntity
  8
$DDT_AUDIT_GENERATED__3B_
  6
Continuous
 62
     7
100
AcDbSpline
210
0.0
220
0.0
230
1.0
 70
     8
 71
     3
 72
     9
 73
     5
 74
     3
 42
0.000000001
 43
0.0000000001
 44
0.00000001
 40
0.0
 40
0.0
 40
0.0
 40
0.0
 40
72.33193807309112
 40
144.663876580228
 40
144.663876580228
 40
144.663876580228
 40
144.663876580228
 10
476.19997593325
 20
-4317.8307862148
 30
0.0
 10
459.9737809982257
 20
-4299.751162113999
 30
0.0
 10
427.521391017614
 20
-4263.59191381865
 30
0.0
 10
385.1058184610907
 20
-4239.89448658076
 30
0.0
 10
363.898032113457
 20
-4228.04577293432
 30
0.0
 11
476.19997593325
 21
-4317.8307862148
 31
0.0
 11
425.0305954921965
 21
-4266.707369165
 31
0.0
 11
363.898032113457
 21
-4228.04577293432
 31
0.0
  0
SPLINE
  5
20D
330
1F
100
AcDbEntity
  8
$DDT_AUDIT_GENERATED__3B_
  6
Continuous
 62
     7
100
AcDbSpline
210
0.0
220
0.0
230
1.0
 70
     8
 71
     3
 72
    13
 73
     9
 74
     7
 42
0.000000001
 43
0.0000000001
 44
0.00000001
 40
0.0
 40
0.0
 40
0.0
 40
0.0
 40
58.65492347669738
 40
117.3104433734068
 40
146.6439883360761
 40
175.9462563612021
 40
180.3412965232018
 40
184.7363366844867
 40
184.7363366844867
 40
184.7363366844867
 40
184.7363366844867
 10
476.19997593325
 20
-4317.8307862148
 30
0.0
 10
488.8425935105156
 20
-4332.792205008644
 30
0.0
 10
514.1279572065106
 20
-4362.715194737582
 30
0.0
 10
537.8322113861454
 20
-4405.877758570709
 30
0.0
 10
552.3257082111744
 20
-4442.213634162308
 30
0.0
 10
558.2164495667164
 20
-4462.429325083207
 30
0.0
 10
561.0347935171326
 20
-4474.809661119692
 30
0.0
 10
561.6963078028668
 20
-4477.664057385813
 30
0.0
 10
562.027064938723
 20
-4479.09125552037
 30
0.0
 11
476.19997593325
 21
-4317.8307862148
 31
0.0
 11
512.5471628009396
 21
-4363.866446900978
 31
0.0
 11
541.0831237963716
 21
-4415.112607191983
 31
0.0
 11
551.887716701304
 21
-4442.383794043639
 31
0.0
 11
560.0481028012143
 21
-4470.526839547133
 31
0.0
 11
561.0375838699659
 21
-4474.80904753375
 31
0.0
 11
562.027064938723
 21
-4479.09125552037
 31
0.0
  0
SPLINE
  5
20E
330
1F
100
AcDbEntity
  8
$DDT_AUDIT_GENERATED__3B_
  6
Continuous
 62
     7
100
AcDbSpline
210
0.0
220
0.0
230
1.0
 70
     8
 71
     3
 72
     9
 73
     5
 74
     3
 42
0.000000001
 43
0.0000000001
 44
0.00000001
 40
0.0
 40
0.0
 40
0.0
 40
0.0
 40
7.475491712823844
 40
14.95098364112821
 40
14.95098364112821
 40
14.95098364112821
 40
14.95098364112821
 10
363.898032113457
 20
-4228.04577293432
 30
0.0
 10
361.5059312929262
 20
-4227.305250143768
 30
0.0
 10
356.7217295787379
 20
-4225.824204560742
 30
0.0
 10
351.7164435207736
 20
-4225.653343367137
 30
0.0
 10
349.213800454508
 20
-4225.56791277896
 30
0.0
 11
363.898032113457
 21
-4228.04577293432
 31
0.0
 11
356.6664585650032
 21
-4226.15175066014
 31
0.0
 11
349.213800454508
 21
-4225.56791277896
 31
0.0
  0
SPLINE
  5
20F
330
1F
100
AcDbEntity
  8
$DDT_AUDIT_GENERATED__3B_
  6
Continuous
 62
     7
100
AcDbSpline
210
0.0
220
0.0
230
1.0
 70
     8
 71
     3
 72
     9
 73
     5
 74
     3
 42
0.000000001
 43
0.0000000001
 44
0.00000001
 40
0.0
 40
0.0
 40
0.0
 40
0.0
 40
26.88579480292992
 40
53.77159568775789
 40
53.77159568775789
 40
53.77159568775789
 40
53.77159568775789
 10
-2617.53315253876
 20
-4666.21127208491
 30
0.0
 10
-2626.586954946616
 20
-4666.891320803115
 30
0.0
 10
-2644.694561806153
 20
-4668.251418412532
 30
0.0
 10
-2660.556366737011
 20
-4677.091013330933
 30
0.0
 10
-2668.48727009597
 20
-4681.51081129921
 30
0.0
 11
-2617.53315253876
 21
-4666.21127208491
 31
0.0
 11
-2644.133109405784
 21
-4670.121292153376
 31
0.0
 11
-2668.48727009597
 21
-4681.51081129921
 31
0.0
  0
SPLINE
  5
210
330
1F
100
AcDbEntity
  8
$DDT_AUDIT_GENERATED__3B_
  6
Continuous
 62
     7
100
AcDbSpline
210
0.0
220
0.0
230
1.0
 70
     8
 71
     3
 72
     9
 73
     5
 74
     3
 42
0.000000001
 43
0.0000000001
 44
0.00000001
 40
0.0
 40
0.0
 40
0.0
 40
0.0
 40
26.88632120524086
 40
53.77263796016128
 40
53.77263796016128
 40
53.77263796016128
 40
53.77263796016128
 10
-2495.20335856002
 20
-1774.9309592596
 30
0.0
 10
-2504.257678481614
 20
-1775.609290666623
 30
0.0
 10
-2522.366316821846
 20
-1776.965953387552
 30
0.0
 10
-2538.227090125333
 20
-1785.80898368296
 30
0.0
 10
-2546.15747611724
 20
-1790.2304984739
 30
0.0
 11
-2495.20335856002
 21
-1774.9309592596
 31
0.0
 11
-2521.804351971221
 21
-1778.837545693666
 31
0.0
 11
-2546.15747611724
 21
-1790.2304984739
 31
0.0
  0
SPLINE
  5
211
330
1F
100
AcDbEntity
  8
$DDT_AUDIT_GENERATED__3B_
  6
Continuous
 62
     7
100
AcDbSpline
210
0.0
220
0.0
230
1.0
 70
     8
 71
     3
 72
     9
 73
     5
 74
     3
 42
0.000000001
 43
0.0000000001
 44
0.00000001
 40
0.0
 40
0.0
 40
0.0
 40
0.0
 40
26.89393741930018
 40
53.78787535360362
 40
53.78787535360362
 40
53.78787535360362
 40
53.78787535360362
 10
-2372.89019451522
 20
1116.31609369785
 30
0.0
 10
-2381.946859252975
 20
1115.636954038849
 30
0.0
 10
-2400.060188897663
 20
1114.278674688676
 30
0.0
 10
-2415.927357588488
 20
1105.437261252923
 30
0.0
 10
-2423.86094200636
 20
1101.01655448355
 30
0.0
 11
-2372.89019451522
 21
1116.31609369785
 31
0.0
 11
-2399.498648499395
 21
1112.407891225689
 31
0.0
 11
-2423.86094200636
 21
1101.01655448355
 31
0.0
  0
SPLINE
  5
212
330
1F
100
AcDbEntity
  8
$DDT_AUDIT_GENERATED__3B_
  6
Continuous
 62
     7
100
AcDbSpline
210
0.0
220
0.0
230
1.0
 70
     8
 71
     3
 72
     9
 73
     5
 74
     3
 42
0.000000001
 43
0.0000000001
 44
0.00000001
 40
0.0
 40
0.0
 40
0.0
 40
0.0
 40
26.89368022881371
 40
53.78735469136783
 40
53.78735469136783
 40
53.78735469136783
 40
53.78735469136783
 10
-1008.5205252116
 20
1101.01655448355
 30
0.0
 10
-1016.454368132453
 20
1105.436403153951
 30
0.0
 10
-1032.322052280072
 20
1114.276099528758
 30
0.0
 10
-1050.434866541026
 20
1115.636095696474
 30
0.0
 10
-1059.49127270274
 20
1116.31609369785
 30
0.0
 11
-1008.5205252116
 21
1101.01655448355
 31
0.0
 11
-1032.883336626966
 21
1112.406175033291
 31
0.0
 11
-1059.49127270274
 21
1116.31609369785
 31
0.0
  0
SPLINE
  5
213
330
1F
100
AcDbEntity
  8
$DDT_AUDIT_GENERATED__3B_
  6
Continuous
 62
     7
100
AcDbSpline
210
0.0
220
0.0
230
1.0
 70
     8
 71
     3
 72
     9
 73
     5
 74
     3
 42
0.000000001
 43
0.0000000001
 44
0.00000001
 40
0.0
 40
0.0
 40
0.0
 40
0.0
 40
26.89393793430138
 40
53.78787535360411
 40
53.78787535360411
 40
53.78787535360411
 40
53.78787535360411
 10
-886.207361166793
 20
-1790.2304984739
 30
0.0
 10
-894.1409455846642
 20
-1785.809791704527
 30
0.0
 10
-910.0081142754893
 20
-1776.968378268772
 30
0.0
 10
-928.1214439201773
 20
-1775.610098918601
 30
0.0
 10
-937.178108657933
 20
-1774.9309592596
 30
0.0
 11
-886.207361166793
 21
-1790.2304984739
 31
0.0
 11
-910.5696546737554
 21
-1778.839161731761
 31
0.0
 11
-937.178108657933
 21
-1774.9309592596
 31
0.0
  0
SPLINE
  5
214
330
1F
100
AcDbEntity
  8
$DDT_AUDIT_GENERATED__3B_
  6
Continuous
 62
     7
100
AcDbSpline
210
0.0
220
0.0
230
1.0
 70
     8
 71
     3
 72
     9
 73
     5
 74
     3
 42
0.000000001
 43
0.0000000001
 44
0.00000001
 40
0.0
 40
0.0
 40
0.0
 40
0.0
 40
26.89393793430127
 40
53.78787535360322
 40
53.78787535360322
 40
53.78787535360322
 40
53.78787535360322
 10
-763.894197121986
 20
-4681.51081129921
 30
0.0
 10
-771.8277815398573
 20
-4677.090104529838
 30
0.0
 10
-787.6949502306818
 20
-4668.248691094081
 30
0.0
 10
-805.8082798753696
 20
-4666.890411743912
 30
0.0
 10
-814.864944613125
 20
-4666.21127208491
 30
0.0
 11
-763.894197121986
 21
-4681.51081129921
 31
0.0
 11
-788.2564906289482
 21
-4670.119474557071
 31
0.0
 11
-814.864944613125
 21
-4666.21127208491
 31
0.0
  0
ARC
  5
215
330
1F
100
AcDbEntity
  8
1
  6
Continuous
 62
     5
100
AcDbCircle
 10
-951.639038986812
 20
-9242.254422164899
 30
0.0
 40
20.0
100
AcDbArc
 50
0.0
 51
90.00330235040012
  0
ARC
  5
216
330
1F
100
AcDbEntity
  8
1
  6
Continuous
 62
     5
100
AcDbCircle
 10
-929.639038986812
 20
-9400.252347502705
 30
0.0
 40
2.0
100
AcDbArc
 50
180.0
 51
270.0
  0
ARC
  5
217
330
1F
100
AcDbEntity
  8
1
  6
Continuous
 62
     5
100
AcDbCircle
 10
-917.639038986812
 20
-9400.252347502705
 30
0.0
 40
2.0
100
AcDbArc
 50
270.0
 51
0.0
  0
ARC
  5
218
330
1F
100
AcDbEntity
  8
1
  6
Continuous
 62
     5
100
AcDbCircle
 10
379.8949256201745
 20
-9242.247678649048
 30
0.0
 40
20.0
100
AcDbArc
 50
0.0
 51
90.00330235040012
  0
ARC
  5
219
330
1F
100
AcDbEntity
  8
1
  6
Continuous
 62
     5
100
AcDbCircle
 10
401.8949256201745
 20
-9400.245603986854
 30
0.0
 40
2.0
100
AcDbArc
 50
180.0
 51
270.0
  0
ARC
  5
21A
330
1F
100
AcDbEntity
  8
1
  6
Continuous
 62
     5
100
AcDbCircle
 10
413.8949256201745
 20
-9400.245603986854
 30
0.0
 40
2.0
100
AcDbArc
 50
270.0
 51
0.0
  0
ARC
  5
21B
330
1F
100
AcDbEntity
  8
1
  6
Continuous
 62
     5
100
AcDbCircle
 10
-317.1050743798255
 20
-9400.245603986856
 30
0.0
 40
2.0
100
AcDbArc
 50
180.0
 51
270.0
  0
ARC
  5
21C
330
1F
100
AcDbEntity
  8
1
  6
Continuous
 62
     5
100
AcDbCircle
 10
-305.1050743798255
 20
-9400.245603986856
 30
0.0
 40
2.0
100
AcDbArc
 50
270.0
 51
0.0
  0
ARC
  5
21D
330
1F
100
AcDbEntity
  8
1
  6
Continuous
 62
     5
100
AcDbCircle
 10
-283.1050743798255
 20
-9242.247678649048
 30
0.0
 40
19.9999999999999
100
AcDbArc
 50
89.99669764959991
 51
180.0
  0
ARC
  5
21E
330
1F
100
AcDbEntity
  8
1
  6
Continuous
 62
     5
100
AcDbCircle
 10
440.529870589
 20
-4915.554618777169
 30
0.0
 40
20.00000000000081
100
AcDbArc
 50
89.99669764959991
 51
180.0
  0
ARC
  5
21F
330
1F
100
AcDbEntity
  8
1
  6
Continuous
 62
     5
100
AcDbCircle
 10
418.529870589
 20
-5073.552544114976
 30
0.0
 40
2.0
100
AcDbArc
 50
270.0
 51
0.0
  0
ARC
  5
220
330
1F
100
AcDbEntity
  8
1
  6
Continuous
 62
     5
100
AcDbCircle
 10
406.529870589
 20
-5073.552544114976
 30
0.0
 40
2.0
100
AcDbArc
 50
180.0
 51
270.0
  0
ARC
  5
221
330
1F
100
AcDbEntity
  8
1
  6
Continuous
 62
     5
100
AcDbCircle
 10
1137.529870589
 20
-5073.479747270278
 30
0.0
 40
2.0
100
AcDbArc
 50
270.0
 51
0.0
  0
ARC
  5
222
330
1F
100
AcDbEntity
  8
1
  6
Continuous
 62
     5
100
AcDbCircle
 10
1125.529870589
 20
-5073.479747270278
 30
0.0
 40
2.0
100
AcDbArc
 50
180.0
 51
270.0
  0
ARC
  5
223
330
1F
100
AcDbEntity
  8
1
  6
Continuous
 62
     5
100
AcDbCircle
 10
1103.529870589
 20
-4915.481821932471
 30
0.0
 40
20.0
100
AcDbArc
 50
0.0
 51
90.00330235040012
  0
ARC
  5
224
330
1F
100
AcDbEntity
  8
1
  6
Continuous
 62
     5
100
AcDbCircle
 10
-1058.153952921864
 20
3758.073694347465
 30
0.0
 40
20.0
100
AcDbArc
 50
0.0
 51
90.00330235040012
  0
ARC
  5
225
330
1F
100
AcDbEntity
  8
1
  6
Continuous
 62
     5
100
AcDbCircle
 10
-1036.153952921864
 20
3600.075769009658
 30
0.0
 40
2.0
100
AcDbArc
 50
180.0
 51
270.0
  0
ARC
  5
226
330
1F
100
AcDbEntity
  8
1
  6
Continuous
 62
     5
100
AcDbCircle
 10
-1024.153952921864
 20
3600.075769009658
 30
0.0
 40
2.0
100
AcDbArc
 50
270.0
 51
0.0
  0
ARC
  5
227
330
1F
100
AcDbEntity
  8
1
  6
Continuous
 62
     5
100
AcDbCircle
 10
-2408.179208536915
 20
3600.075769009658
 30
0.0
 40
2.0
100
AcDbArc
 50
180.0
 51
270.0
  0
ARC
  5
228
330
1F
100
AcDbEntity
  8
1
  6
Continuous
 62
     5
100
AcDbCircle
 10
-2396.179208536915
 20
3600.075769009658
 30
0.0
 40
2.0
100
AcDbArc
 50
270.0
 51
0.0
  0
ARC
  5
229
330
1F
100
AcDbEntity
  8
1
  6
Continuous
 62
     5
100
AcDbCircle
 10
-2374.179208536915
 20
3758.073694347465
 30
0.0
 40
20.00000000000036
100
AcDbArc
 50
89.99669764959991
 51
180.0
  0
ARC
  5
22A
330
1F
100
AcDbEntity
  8
1
  6
Continuous
 62
     5
100
AcDbCircle
 10
-2734.203361416506
 20
-4915.575800333363
 30
0.0
 40
19.9999999999999
100
AcDbArc
 50
89.99669764959991
 51
180.0
  0
ARC
  5
22B
330
1F
100
AcDbEntity
  8
1
  6
Continuous
 62
     5
100
AcDbCircle
 10
-2756.203361416506
 20
-5073.573725671171
 30
0.0
 40
2.0
100
AcDbArc
 50
270.0
 51
0.0
  0
ARC
  5
22C
330
1F
100
AcDbEntity
  8
1
  6
Continuous
 62
     5
100
AcDbCircle
 10
-2768.203361416506
 20
-5073.573725671171
 30
0.0
 40
2.0
100
AcDbArc
 50
180.0
 51
270.0
  0
ARC
  5
22D
330
1F
100
AcDbEntity
  8
1
  6
Continuous
 62
     5
100
AcDbCircle
 10
-698.178105801454
 20
-4915.575800333363
 30
0.0
 40
20.0
100
AcDbArc
 50
0.0
 51
90.00330235040012
  0
ARC
  5
22E
330
1F
100
AcDbEntity
  8
1
  6
Continuous
 62
     5
100
AcDbCircle
 10
-676.178105801454
 20
-5073.573725671171
 30
0.0
 40
2.0
100
AcDbArc
 50
180.0
 51
270.0
  0
ARC
  5
22F
330
1F
100
AcDbEntity
  8
1
  6
Continuous
 62
     5
100
AcDbCircle
 10
-664.178105801454
 20
-5073.573725671171
 30
0.0
 40
2.0
100
AcDbArc
 50
270.0
 51
0.0
  0
ARC
  5
230
330
1F
100
AcDbEntity
  8
1
  6
Continuous
 62
     5
100
AcDbCircle
 10
-2648.203361416506
 20
-2182.29341284586
 30
0.0
 40
2.0
100
AcDbArc
 50
180.0
 51
270.0
  0
ARC
  5
231
330
1F
100
AcDbEntity
  8
1
  6
Continuous
 62
     5
100
AcDbCircle
 10
-2636.203361416506
 20
-2182.29341284586
 30
0.0
 40
2.0
100
AcDbArc
 50
270.0
 51
0.0
  0
ARC
  5
232
330
1F
100
AcDbEntity
  8
1
  6
Continuous
 62
     5
100
AcDbCircle
 10
-2614.203361416506
 20
-2024.295487508053
 30
0.0
 40
20.00000000000013
100
AcDbArc
 50
89.99669764959991
 51
180.0
  0
ARC
  5
233
330
1F
100
AcDbEntity
  8
1
  6
Continuous
 62
     5
100
AcDbCircle
 10
-784.178105801454
 20
-2182.29341284586
 30
0.0
 40
2.0
100
AcDbArc
 50
270.0
 51
0.0
  0
ARC
  5
234
330
1F
100
AcDbEntity
  8
1
  6
Continuous
 62
     5
100
AcDbCircle
 10
-796.178105801454
 20
-2182.29341284586
 30
0.0
 40
2.0
100
AcDbArc
 50
180.0
 51
270.0
  0
ARC
  5
235
330
1F
100
AcDbEntity
  8
1
  6
Continuous
 62
     5
100
AcDbCircle
 10
-818.178105801454
 20
-2024.295487508053
 30
0.0
 40
20.0
100
AcDbArc
 50
0.0
 51
90.00330235040012
  0
ARC
  5
236
330
1F
100
AcDbEntity
  8
1
  6
Continuous
 62
     5
100
AcDbCircle
 10
-2494.179208536915
 20
866.889103419706
 30
0.0
 40
20.00000000000002
100
AcDbArc
 50
89.99669764959991
 51
180.0
  0
ARC
  5
237
330
1F
100
AcDbEntity
  8
1
  6
Continuous
 62
     5
100
AcDbCircle
 10
-2516.179208536915
 20
708.8911780818988
 30
0.0
 40
2.0
100
AcDbArc
 50
270.0
 51
0.0
  0
ARC
  5
238
330
1F
100
AcDbEntity
  8
1
  6
Continuous
 62
     5
100
AcDbCircle
 10
-2528.179208536915
 20
708.8911780818988
 30
0.0
 40
2.0
100
AcDbArc
 50
180.0
 51
270.0
  0
ARC
  5
239
330
1F
100
AcDbEntity
  8
1
  6
Continuous
 62
     5
100
AcDbCircle
 10
-904.1539529218635
 20
708.8911780818988
 30
0.0
 40
2.0
100
AcDbArc
 50
270.0
 51
0.0
  0
ARC
  5
23A
330
1F
100
AcDbEntity
  8
1
  6
Continuous
 62
     5
100
AcDbCircle
 10
-916.1539529218635
 20
708.8911780818988
 30
0.0
 40
2.0
100
AcDbArc
 50
180.0
 51
270.0
  0
ARC
  5
23B
330
1F
100
AcDbEntity
  8
1
  6
Continuous
 62
     5
100
AcDbCircle
 10
-938.1539529218635
 20
866.889103419706
 30
0.0
 40
20.0
100
AcDbArc
 50
0.0
 51
90.00330235040012
  0
ARC
  5
23C
330
1F
100
AcDbEntity
  8
1
  6
Continuous
 62
     5
100
AcDbCircle
 10
-1414.639038986812
 20
-9400.252347502705
 30
0.0
 40
2.0
100
AcDbArc
 50
180.0
 51
270.0
  0
ARC
  5
23D
330
1F
100
AcDbEntity
  8
1
  6
Continuous
 62
     5
100
AcDbCircle
 10
-1402.639038986812
 20
-9400.252347502705
 30
0.0
 40
2.0
100
AcDbArc
 50
270.0
 51
0.0
  0
ARC
  5
23E
330
1F
100
AcDbEntity
  8
1
  6
Continuous
 62
     5
100
AcDbCircle
 10
-1380.639038986812
 20
-9242.254422164899
 30
0.0
 40
19.9999999999999
100
AcDbArc
 50
89.99669764959991
 51
180.0
  0
LWPOLYLINE
  5
23F
330
1F
100
AcDbEntity
  8
$DDT_AUDIT_GENERATED__93_
  6
AI_Linetype_23
 62
     7
100
AcDbPolyline
 90
        2
 70
     0
 43
0.0
 10
-1128.5205252116
 20
3879.516713111157
 10
-1128.5205252116
 20
4003.409720879179
  0
LWPOLYLINE
  5
240
330
1F
100
AcDbEntity
  8
$DDT_AUDIT_GENERATED__93_
  6
AI_Linetype_24
 62
     3
100
AcDbPolyline
 90
        2
 70
     0
 43
0.0
 10
-1128.5205252116
 20
4003.409720879179
 10
-837.263862386209
 20
4003.409720879179
  0
LWPOLYLINE
  5
241
330
1F
100
AcDbEntity
  8
$DDT_AUDIT_GENERATED__93_
  6
AI_Linetype_25
 62
     3
100
AcDbPolyline
 90
        2
 70
     0
 43
0.0
 10
-1128.5205252116
 20
3879.516713111157
 10
-794.192333511151
 20
3879.516713111157
  0
LWPOLYLINE
  5
242
330
1F
100
AcDbEntity
  8
$DDT_AUDIT_GENERATED__93_
  6
Continuous
 62
     7
100
AcDbPolyline
 90
        2
 70
     0
 43
0.0
 10
-1005.375864470363
 20
3879.516713111157
 10
-1005.375864470363
 20
4203.185117163379
  0
LWPOLYLINE
  5
243
330
1F
100
AcDbEntity
  8
$DDT_AUDIT_GENERATED__93_
  6
Continuous
 62
     7
100
AcDbPolyline
 90
        2
 70
     0
 43
0.0
 10
-1128.5205252116
 20
3879.516713111157
 10
-1128.5205252116
 20
4161.460612936529
  0
LWPOLYLINE
  5
244
330
1F
100
AcDbEntity
  8
$DDT_AUDIT_GENERATED__93_
  6
Continuous
 62
     7
100
AcDbPolyline
 90
        2
 70
     0
 43
0.0
 10
-1005.375864470363
 20
3879.516713111157
 10
-1128.5205252116
 20
3879.516713111157
  0
LWPOLYLINE
  5
245
330
1F
100
AcDbEntity
  8
$DDT_AUDIT_GENERATED__93_
  6
Continuous
 62
     7
100
AcDbPolyline
 90
        2
 70
     0
 43
0.0
 10
-1085.698445345471
 20
4203.185117163379
 10
-1005.375864470363
 20
4203.185117163379
  0
LWPOLYLINE
  5
246
330
1F
100
AcDbEntity
  8
$DDT_AUDIT_GENERATED__93_
  6
Continuous
 62
     7
100
AcDbPolyline
 90
        2
 70
     0
 43
0.0
 10
-2426.98897281367
 20
4203.185117163379
 10
-2346.69965180641
 20
4203.185117163379
  0
LWPOLYLINE
  5
247
330
1F
100
AcDbEntity
  8
$DDT_AUDIT_GENERATED__93_
  6
Continuous
 62
     7
100
AcDbPolyline
 90
        2
 70
     0
 43
0.0
 10
-2303.86094200636
 20
3879.516713111157
 10
-2426.98897281367
 20
3879.516713111157
  0
LWPOLYLINE
  5
248
330
1F
100
AcDbEntity
  8
$DDT_AUDIT_GENERATED__93_
  6
Continuous
 62
     7
100
AcDbPolyline
 90
        2
 70
     0
 43
0.0
 10
-2303.86094200636
 20
4161.460612936529
 10
-2303.86094200636
 20
3879.516713111157
  0
LWPOLYLINE
  5
249
330
1F
100
AcDbEntity
  8
$DDT_AUDIT_GENERATED__93_
  6
Continuous
 62
     7
100
AcDbPolyline
 90
        2
 70
     0
 43
0.0
 10
-2426.98897281367
 20
4203.185117163379
 10
-2426.98897281367
 20
3879.516713111157
  0
LWPOLYLINE
  5
24A
330
1F
100
AcDbEntity
  8
$DDT_AUDIT_GENERATED__93_
  6
AI_Linetype_2
 62
     3
100
AcDbPolyline
 90
        2
 70
     0
 43
0.0
 10
-2649.21477990146
 20
3879.516713111157
 10
-2303.86094200636
 20
3879.516713111157
  0
LWPOLYLINE
  5
24B
330
1F
100
AcDbEntity
  8
$DDT_AUDIT_GENERATED__93_
  6
AI_Linetype_3
 62
     3
100
AcDbPolyline
 90
        2
 70
     0
 43
0.0
 10
-2604.69644677462
 20
4007.500684625609
 10
-2303.86094200636
 20
4007.500684625609
  0
LWPOLYLINE
  5
24C
330
1F
100
AcDbEntity
  8
$DDT_AUDIT_GENERATED__93_
  6
AI_Linetype_4
 62
     7
100
AcDbPolyline
 90
        2
 70
     0
 43
0.0
 10
-2303.86094200636
 20
4007.500684625609
 10
-2303.86094200636
 20
3879.516713111157
  0
LWPOLYLINE
  5
24D
330
1F
100
AcDbEntity
  8
$DDT_AUDIT_GENERATED__93_
  6
AI_Linetype_5
 62
     3
100
AcDbPolyline
 90
        2
 70
     0
 43
0.0
 10
-2649.21477990146
 20
3879.516713111157
 10
-2649.21477990146
 20
3962.998981432699
  0
LWPOLYLINE
  5
24E
330
1F
100
AcDbEntity
  8
$DDT_AUDIT_GENERATED__93_
  6
Continuous
 62
     7
100
AcDbPolyline
 90
        2
 70
     0
 43
0.0
 10
-1716.19073360898
 20
4448.144043931559
 10
-2426.98897281367
 20
4448.144043931559
  0
LWPOLYLINE
  5
24F
330
1F
100
AcDbEntity
  8
$DDT_AUDIT_GENERATED__93_
  6
Continuous
 62
     7
100
AcDbPolyline
 90
        2
 70
     0
 43
0.0
 10
-2426.98897281367
 20
4439.729297363689
 10
-2426.98897281367
 20
4448.144043931559
  0
LWPOLYLINE
  5
250
330
1F
100
AcDbEntity
  8
$DDT_AUDIT_GENERATED__93_
  6
Continuous
 62
     7
100
AcDbPolyline
 90
        2
 70
     0
 43
0.0
 10
-2426.98897281367
 20
4203.185117163379
 10
-2426.98897281367
 20
4216.505694240179
  0
LWPOLYLINE
  5
251
330
1F
100
AcDbEntity
  8
$DDT_AUDIT_GENERATED__93_
  6
Continuous
 62
     7
100
AcDbPolyline
 90
        2
 70
     0
 43
0.0
 10
-2426.98897281367
 20
4216.505694240179
 10
-2426.98897281367
 20
4439.729297363689
  0
LWPOLYLINE
  5
252
330
1F
100
AcDbEntity
  8
$DDT_AUDIT_GENERATED__93_
  6
Continuous
 62
     7
100
AcDbPolyline
 90
        2
 70
     0
 43
0.0
 10
-2426.98897281367
 20
3879.516713111157
 10
-1716.19073360898
 20
3879.516713111157
  0
LWPOLYLINE
  5
253
330
1F
100
AcDbEntity
  8
$DDT_AUDIT_GENERATED__93_
  6
Continuous
 62
     7
100
AcDbPolyline
 90
        2
 70
     0
 43
0.0
 10
-2252.89019451522
 20
4007.500684625609
 10
-1716.19073360898
 20
4007.500684625609
  0
LWPOLYLINE
  5
254
330
1F
100
AcDbEntity
  8
$DDT_AUDIT_GENERATED__93_
  6
Continuous
 62
     7
100
AcDbPolyline
 90
        2
 70
     0
 43
0.0
 10
-1716.19073360898
 20
4007.500684625609
 10
-1179.49127270274
 20
4007.500684625609
  0
LWPOLYLINE
  5
255
330
1F
100
AcDbEntity
  8
$DDT_AUDIT_GENERATED__93_
  6
Continuous
 62
     7
100
AcDbPolyline
 90
        2
 70
     0
 43
0.0
 10
-1716.19073360898
 20
3879.516713111157
 10
-1005.375864470363
 20
3879.516713111157
  0
LWPOLYLINE
  5
256
330
1F
100
AcDbEntity
  8
$DDT_AUDIT_GENERATED__93_
  6
Continuous
 62
     7
100
AcDbPolyline
 90
        2
 70
     0
 43
0.0
 10
-1005.375864470363
 20
4439.729297363689
 10
-1005.375864470363
 20
4216.505694240179
  0
LWPOLYLINE
  5
257
330
1F
100
AcDbEntity
  8
$DDT_AUDIT_GENERATED__93_
  6
Continuous
 62
     7
100
AcDbPolyline
 90
        2
 70
     0
 43
0.0
 10
-1005.375864470363
 20
4216.505694240179
 10
-1005.375864470363
 20
4203.185117163379
  0
LWPOLYLINE
  5
258
330
1F
100
AcDbEntity
  8
$DDT_AUDIT_GENERATED__93_
  6
Continuous
 62
     7
100
AcDbPolyline
 90
        2
 70
     0
 43
0.0
 10
-1005.375864470363
 20
4448.144043931559
 10
-1005.375864470363
 20
4439.729297363689
  0
LWPOLYLINE
  5
259
330
1F
100
AcDbEntity
  8
$DDT_AUDIT_GENERATED__93_
  6
Continuous
 62
     7
100
AcDbPolyline
 90
        2
 70
     0
 43
0.0
 10
-1005.375864470363
 20
4448.144043931559
 10
-1716.19073360898
 20
4448.144043931559
  0
LWPOLYLINE
  5
25A
330
1F
100
AcDbEntity
  8
$DDT_AUDIT_GENERATED__3B_
  6
Continuous
 62
     7
100
AcDbPolyline
 90
        2
 70
     0
 43
0.0
 10
-2303.86094200636
 20
3992.201145411309
 10
-2303.86094200636
 20
3879.516713111157
  0
LWPOLYLINE
  5
25B
330
1F
100
AcDbEntity
  8
$DDT_AUDIT_GENERATED__3B_
  6
Continuous
 62
     7
100
AcDbPolyline
 90
        2
 70
     0
 43
0.0
 10
-2426.98897281367
 20
3886.833884039738
 10
-2426.98897281367
 20
3879.516713111157
  0
LWPOLYLINE
  5
25C
330
1F
100
AcDbEntity
  8
$DDT_AUDIT_GENERATED__3B_
  6
Continuous
 62
     1
100
AcDbPolyline
 90
        2
 70
     0
 43
0.0
 10
-1716.19073360898
 20
3806.470126959485
 10
-1716.19073360898
 20
4448.144043931559
  0
LWPOLYLINE
  5
25D
330
1F
100
AcDbEntity
  8
$DDT_AUDIT_GENERATED__3B_
  6
Continuous
 62
     7
100
AcDbPolyline
 90
        2
 70
     0
 43
0.0
 10
-1005.375864470363
 20
3879.516713111157
 10
-1005.375864470363
 20
3886.833884039738
  0
LWPOLYLINE
  5
25E
330
1F
100
AcDbEntity
  8
$DDT_AUDIT_GENERATED__3B_
  6
Continuous
 62
     7
100
AcDbPolyline
 90
        2
 70
     0
 43
0.0
 10
-1128.5205252116
 20
3879.516713111157
 10
-1128.5205252116
 20
3992.201145411309
  0
LWPOLYLINE
  5
25F
330
1F
100
AcDbEntity
  8
$DDT_AUDIT_GENERATED__93_
  6
AI_Linetype_22
 62
     3
100
AcDbPolyline
 90
        2
 70
     0
 43
0.0
 10
-794.192333511151
 20
3960.321562070189
 10
-794.192333511151
 20
3879.516713111157
  0
LWPOLYLINE
  5
260
330
1F
100
AcDbEntity
  8
$DDT_AUDIT_GENERATED__3B_
  6
Continuous
 62
     7
100
AcDbPolyline
 90
        2
 70
     0
 43
0.0
 10
508.678236895794
 20
-4795.67530771901
 10
508.678236895794
 20
-4867.20105435307
  0
LWPOLYLINE
  5
261
330
1F
100
AcDbEntity
  8
$DDT_AUDIT_GENERATED__93_
  6
AI_Linetype_27
 62
     3
100
AcDbPolyline
 90
        2
 70
     0
 43
0.0
 10
-3013.84110799108
 20
-4794.17861366543
 10
-2668.47064016204
 20
-4794.17861366543
  0
LWPOLYLINE
  5
262
330
1F
100
AcDbEntity
  8
$DDT_AUDIT_GENERATED__93_
  6
AI_Linetype_28
 62
     3
100
AcDbPolyline
 90
        2
 70
     0
 43
0.0
 10
-2969.33940479816
 20
-4666.21127208491
 10
-2668.47064016204
 20
-4666.21127208491
  0
LWPOLYLINE
  5
263
330
1F
100
AcDbEntity
  8
$DDT_AUDIT_GENERATED__93_
  6
AI_Linetype_29
 62
     7
100
AcDbPolyline
 90
        2
 70
     0
 43
0.0
 10
-2668.47064016204
 20
-4666.21127208491
 10
-2668.47064016204
 20
-4794.17861366543
  0
LWPOLYLINE
  5
264
330
1F
100
AcDbEntity
  8
$DDT_AUDIT_GENERATED__93_
  6
AI_Linetype_30
 62
     3
100
AcDbPolyline
 90
        2
 70
     0
 43
0.0
 10
-3013.84110799108
 20
-4794.17861366543
 10
-3013.84110799108
 20
-4710.71297527783
  0
LWPOLYLINE
  5
265
330
1F
100
AcDbEntity
  8
$DDT_AUDIT_GENERATED__93_
  6
AI_Linetype_22
 62
     3
100
AcDbPolyline
 90
        2
 70
     0
 43
0.0
 10
-674.192333511151
 20
1069.13697114243
 10
-674.192333511151
 20
988.332122183398
  0
LWPOLYLINE
  5
266
330
1F
100
AcDbEntity
  8
$DDT_AUDIT_GENERATED__93_
  6
AI_Linetype_23
 62
     7
100
AcDbPolyline
 90
        2
 70
     0
 43
0.0
 10
-1008.5205252116
 20
988.332122183398
 10
-1008.5205252116
 20
1112.22512995142
  0
LWPOLYLINE
  5
267
330
1F
100
AcDbEntity
  8
$DDT_AUDIT_GENERATED__93_
  6
AI_Linetype_24
 62
     3
100
AcDbPolyline
 90
        2
 70
     0
 43
0.0
 10
-1008.5205252116
 20
1112.22512995142
 10
-717.263862386209
 20
1112.22512995142
  0
LWPOLYLINE
  5
268
330
1F
100
AcDbEntity
  8
$DDT_AUDIT_GENERATED__93_
  6
AI_Linetype_25
 62
     3
100
AcDbPolyline
 90
        2
 70
     0
 43
0.0
 10
-1008.5205252116
 20
988.332122183398
 10
-674.192333511151
 20
988.332122183398
  0
LWPOLYLINE
  5
269
330
1F
100
AcDbEntity
  8
$DDT_AUDIT_GENERATED__93_
  6
AI_Linetype_17
 62
     3
100
AcDbPolyline
 90
        2
 70
     0
 43
0.0
 10
-429.549375487609
 20
-4713.3737647064
 10
-429.549375487609
 20
-4794.17861366543
  0
LWPOLYLINE
  5
26A
330
1F
100
AcDbEntity
  8
$DDT_AUDIT_GENERATED__93_
  6
AI_Linetype_18
 62
     7
100
AcDbPolyline
 90
        2
 70
     0
 43
0.0
 10
-763.894197121986
 20
-4794.17861366543
 10
-763.894197121986
 20
-4670.30223583134
  0
LWPOLYLINE
  5
26B
330
1F
100
AcDbEntity
  8
$DDT_AUDIT_GENERATED__93_
  6
AI_Linetype_19
 62
     3
100
AcDbPolyline
 90
        2
 70
     0
 43
0.0
 10
-763.894197121986
 20
-4670.30223583134
 10
-472.637534296595
 20
-4670.30223583134
  0
LWPOLYLINE
  5
26C
330
1F
100
AcDbEntity
  8
$DDT_AUDIT_GENERATED__93_
  6
AI_Linetype_20
 62
     3
100
AcDbPolyline
 90
        2
 70
     0
 43
0.0
 10
-763.894197121986
 20
-4794.17861366543
 10
-429.549375487609
 20
-4794.17861366543
  0
LWPOLYLINE
  5
26D
330
1F
100
AcDbEntity
  8
$DDT_AUDIT_GENERATED__93_
  6
Continuous
 62
     7
100
AcDbPolyline
 90
        2
 70
     0
 43
0.0
 10
-2669.30213685847
 20
-1579.27978658969
 10
-2589.01281585122
 20
-1579.27978658969
  0
LWPOLYLINE
  5
26E
330
1F
100
AcDbEntity
  8
$DDT_AUDIT_GENERATED__93_
  6
Continuous
 62
     7
100
AcDbPolyline
 90
        2
 70
     0
 43
0.0
 10
-2546.15747611724
 20
-1902.91493077406
 10
-2669.30213685847
 20
-1902.91493077406
  0
LWPOLYLINE
  5
26F
330
1F
100
AcDbEntity
  8
$DDT_AUDIT_GENERATED__93_
  6
Continuous
 62
     7
100
AcDbPolyline
 90
        2
 70
     0
 43
0.0
 10
-2546.15747611724
 20
-1620.97103094868
 10
-2546.15747611724
 20
-1902.91493077406
  0
LWPOLYLINE
  5
270
330
1F
100
AcDbEntity
  8
$DDT_AUDIT_GENERATED__93_
  6
Continuous
 62
     7
100
AcDbPolyline
 90
        2
 70
     0
 43
0.0
 10
-2669.30213685847
 20
-1579.27978658969
 10
-2669.30213685847
 20
-1902.91493077406
  0
LWPOLYLINE
  5
271
330
1F
100
AcDbEntity
  8
$DDT_AUDIT_GENERATED__93_
  6
AI_Linetype_12
 62
     3
100
AcDbPolyline
 90
        2
 70
     0
 43
0.0
 10
-2891.52794394627
 20
-1902.91493077406
 10
-2546.15747611724
 20
-1902.91493077406
  0
LWPOLYLINE
  5
272
330
1F
100
AcDbEntity
  8
$DDT_AUDIT_GENERATED__93_
  6
AI_Linetype_13
 62
     3
100
AcDbPolyline
 90
        2
 70
     0
 43
0.0
 10
-2847.02624075335
 20
-1774.96421912745
 10
-2546.15747611724
 20
-1774.9309592596
  0
LWPOLYLINE
  5
273
330
1F
100
AcDbEntity
  8
$DDT_AUDIT_GENERATED__93_
  6
AI_Linetype_14
 62
     7
100
AcDbPolyline
 90
        2
 70
     0
 43
0.0
 10
-2546.15747611724
 20
-1774.9309592596
 10
-2546.15747611724
 20
-1902.91493077406
  0
LWPOLYLINE
  5
274
330
1F
100
AcDbEntity
  8
$DDT_AUDIT_GENERATED__93_
  6
AI_Linetype_15
 62
     3
100
AcDbPolyline
 90
        2
 70
     0
 43
0.0
 10
-2891.52794394627
 20
-1902.91493077406
 10
-2891.52794394627
 20
-1819.46592232037
  0
LWPOLYLINE
  5
275
330
1F
100
AcDbEntity
  8
$DDT_AUDIT_GENERATED__93_
  6
Continuous
 62
     7
100
AcDbPolyline
 90
        2
 70
     0
 43
0.0
 10
-2791.63193083721
 20
-4470.52683954714
 10
-2791.63193083721
 20
-4794.17861366543
  0
LWPOLYLINE
  5
276
330
1F
100
AcDbEntity
  8
$DDT_AUDIT_GENERATED__93_
  6
Continuous
 62
     7
100
AcDbPolyline
 90
        2
 70
     0
 43
0.0
 10
-2668.47064016204
 20
-4512.25134377399
 10
-2668.47064016204
 20
-4794.17861366543
  0
LWPOLYLINE
  5
277
330
1F
100
AcDbEntity
  8
$DDT_AUDIT_GENERATED__93_
  6
Continuous
 62
     7
100
AcDbPolyline
 90
        2
 70
     0
 43
0.0
 10
-2668.47064016204
 20
-4794.17861366543
 10
-2791.63193083721
 20
-4794.17861366543
  0
LWPOLYLINE
  5
278
330
1F
100
AcDbEntity
  8
$DDT_AUDIT_GENERATED__93_
  6
Continuous
 62
     7
100
AcDbPolyline
 90
        2
 70
     0
 43
0.0
 10
-2791.63193083721
 20
-4470.52683954714
 10
-2711.3093499621
 20
-4470.52683954714
  0
LWPOLYLINE
  5
279
330
1F
100
AcDbEntity
  8
$DDT_AUDIT_GENERATED__93_
  6
Continuous
 62
     7
100
AcDbPolyline
 90
        2
 70
     0
 43
0.0
 10
-721.055487321928
 20
-4470.52683954714
 10
-640.749536380749
 20
-4470.52683954714
  0
LWPOLYLINE
  5
27A
330
1F
100
AcDbEntity
  8
$DDT_AUDIT_GENERATED__93_
  6
Continuous
 62
     7
100
AcDbPolyline
 90
        2
 70
     0
 43
0.0
 10
-640.749536380749
 20
-4794.17861366543
 10
-763.894197121986
 20
-4794.17861366543
  0
LWPOLYLINE
  5
27B
330
1F
100
AcDbEntity
  8
$DDT_AUDIT_GENERATED__93_
  6
Continuous
 62
     7
100
AcDbPolyline
 90
        2
 70
     0
 43
0.0
 10
-763.894197121986
 20
-4794.17861366543
 10
-763.894197121986
 20
-4512.23471384006
  0
LWPOLYLINE
  5
27C
330
1F
100
AcDbEntity
  8
$DDT_AUDIT_GENERATED__93_
  6
Continuous
 62
     7
100
AcDbPolyline
 90
        2
 70
     0
 43
0.0
 10
-640.749536380749
 20
-4794.17861366543
 10
-640.749536380749
 20
-4470.52683954714
  0
LWPOLYLINE
  5
27D
330
1F
100
AcDbEntity
  8
$DDT_AUDIT_GENERATED__93_
  6
AI_Linetype_7
 62
     3
100
AcDbPolyline
 90
        2
 70
     0
 43
0.0
 10
-551.862539532415
 20
-1822.12671174894
 10
-551.862539532415
 20
-1902.91493077406
  0
LWPOLYLINE
  5
27E
330
1F
100
AcDbEntity
  8
$DDT_AUDIT_GENERATED__93_
  6
AI_Linetype_8
 62
     7
100
AcDbPolyline
 90
        2
 70
     0
 43
0.0
 10
-886.207361166793
 20
-1902.91493077406
 10
-886.207361166793
 20
-1779.02192300603
  0
LWPOLYLINE
  5
27F
330
1F
100
AcDbEntity
  8
$DDT_AUDIT_GENERATED__93_
  6
AI_Linetype_9
 62
     3
100
AcDbPolyline
 90
        2
 70
     0
 43
0.0
 10
-886.207361166793
 20
-1779.02192300603
 10
-594.967328275331
 20
-1779.02192300603
  0
LWPOLYLINE
  5
280
330
1F
100
AcDbEntity
  8
$DDT_AUDIT_GENERATED__93_
  6
AI_Linetype_10
 62
     3
100
AcDbPolyline
 90
        2
 70
     0
 43
0.0
 10
-886.207361166793
 20
-1902.91493077406
 10
-551.862539532415
 20
-1902.91493077406
  0
LWPOLYLINE
  5
281
330
1F
100
AcDbEntity
  8
$DDT_AUDIT_GENERATED__93_
  6
Continuous
 62
     7
100
AcDbPolyline
 90
        2
 70
     0
 43
0.0
 10
-763.079330359485
 20
-1902.91493077406
 10
-763.079330359485
 20
-1579.27978658969
  0
LWPOLYLINE
  5
282
330
1F
100
AcDbEntity
  8
$DDT_AUDIT_GENERATED__93_
  6
Continuous
 62
     7
100
AcDbPolyline
 90
        2
 70
     0
 43
0.0
 10
-886.207361166793
 20
-1902.91493077406
 10
-886.190731232864
 20
-1620.97103094868
  0
LWPOLYLINE
  5
283
330
1F
100
AcDbEntity
  8
$DDT_AUDIT_GENERATED__93_
  6
Continuous
 62
     7
100
AcDbPolyline
 90
        2
 70
     0
 43
0.0
 10
-763.079330359485
 20
-1902.91493077406
 10
-886.207361166793
 20
-1902.91493077406
  0
LWPOLYLINE
  5
284
330
1F
100
AcDbEntity
  8
$DDT_AUDIT_GENERATED__93_
  6
Continuous
 62
     7
100
AcDbPolyline
 90
        2
 70
     0
 43
0.0
 10
-843.368651366735
 20
-1579.27978658969
 10
-763.079330359485
 20
-1579.27978658969
  0
LWPOLYLINE
  5
285
330
1F
100
AcDbEntity
  8
$DDT_AUDIT_GENERATED__93_
  6
Continuous
 62
     7
100
AcDbPolyline
 90
        2
 70
     0
 43
0.0
 10
-885.375864470363
 20
988.332122183398
 10
-885.375864470363
 20
1312.00052623562
  0
LWPOLYLINE
  5
286
330
1F
100
AcDbEntity
  8
$DDT_AUDIT_GENERATED__93_
  6
Continuous
 62
     7
100
AcDbPolyline
 90
        2
 70
     0
 43
0.0
 10
-1008.5205252116
 20
988.332122183398
 10
-1008.5205252116
 20
1270.27602200877
  0
LWPOLYLINE
  5
287
330
1F
100
AcDbEntity
  8
$DDT_AUDIT_GENERATED__93_
  6
Continuous
 62
     7
100
AcDbPolyline
 90
        2
 70
     0
 43
0.0
 10
-885.375864470363
 20
988.332122183398
 10
-1008.5205252116
 20
988.332122183398
  0
LWPOLYLINE
  5
288
330
1F
100
AcDbEntity
  8
$DDT_AUDIT_GENERATED__93_
  6
Continuous
 62
     7
100
AcDbPolyline
 90
        2
 70
     0
 43
0.0
 10
-965.698445345471
 20
1312.00052623562
 10
-885.375864470363
 20
1312.00052623562
  0
LWPOLYLINE
  5
289
330
1F
100
AcDbEntity
  8
$DDT_AUDIT_GENERATED__93_
  6
Continuous
 62
     7
100
AcDbPolyline
 90
        2
 70
     0
 43
0.0
 10
-2546.98897281367
 20
1312.00052623562
 10
-2466.69965180641
 20
1312.00052623562
  0
LWPOLYLINE
  5
28A
330
1F
100
AcDbEntity
  8
$DDT_AUDIT_GENERATED__93_
  6
Continuous
 62
     7
100
AcDbPolyline
 90
        2
 70
     0
 43
0.0
 10
-2423.86094200636
 20
988.332122183398
 10
-2546.98897281367
 20
988.332122183398
  0
LWPOLYLINE
  5
28B
330
1F
100
AcDbEntity
  8
$DDT_AUDIT_GENERATED__93_
  6
Continuous
 62
     7
100
AcDbPolyline
 90
        2
 70
     0
 43
0.0
 10
-2423.86094200636
 20
1270.27602200877
 10
-2423.86094200636
 20
988.332122183398
  0
LWPOLYLINE
  5
28C
330
1F
100
AcDbEntity
  8
$DDT_AUDIT_GENERATED__93_
  6
Continuous
 62
     7
100
AcDbPolyline
 90
        2
 70
     0
 43
0.0
 10
-2546.98897281367
 20
1312.00052623562
 10
-2546.98897281367
 20
988.332122183398
  0
LWPOLYLINE
  5
28D
330
1F
100
AcDbEntity
  8
$DDT_AUDIT_GENERATED__93_
  6
AI_Linetype_2
 62
     3
100
AcDbPolyline
 90
        2
 70
     0
 43
0.0
 10
-2769.21477990146
 20
988.332122183398
 10
-2423.86094200636
 20
988.332122183398
  0
LWPOLYLINE
  5
28E
330
1F
100
AcDbEntity
  8
$DDT_AUDIT_GENERATED__93_
  6
AI_Linetype_3
 62
     3
100
AcDbPolyline
 90
        2
 70
     0
 43
0.0
 10
-2724.69644677462
 20
1116.31609369785
 10
-2423.86094200636
 20
1116.31609369785
  0
LWPOLYLINE
  5
28F
330
1F
100
AcDbEntity
  8
$DDT_AUDIT_GENERATED__93_
  6
AI_Linetype_4
 62
     7
100
AcDbPolyline
 90
        2
 70
     0
 43
0.0
 10
-2423.86094200636
 20
1116.31609369785
 10
-2423.86094200636
 20
988.332122183398
  0
LWPOLYLINE
  5
290
330
1F
100
AcDbEntity
  8
$DDT_AUDIT_GENERATED__93_
  6
AI_Linetype_5
 62
     3
100
AcDbPolyline
 90
        2
 70
     0
 43
0.0
 10
-2769.21477990146
 20
988.332122183398
 10
-2769.21477990146
 20
1071.81439050494
  0
LWPOLYLINE
  5
291
330
1F
100
AcDbEntity
  8
$DDT_AUDIT_GENERATED__545_
  6
Continuous
 62
     7
100
AcDbPolyline
 90
        6
 70
     1
 43
0.0
 10
-1447.36785165326
 20
-9115.08445653016
 10
-1447.36785165326
 20
-9115.08445653016
 10
-1447.36785165326
 20
-8982.59377292106
 10
-884.910226320363
 20
-8982.59377292106
 10
-884.910226320363
 20
-9115.08445653016
 10
-1447.36785165326
 20
-9115.08445653016
  0
LWPOLYLINE
  5
292
330
1F
100
AcDbEntity
  8
$DDT_AUDIT_GENERATED__93_
  6
Continuous
 62
     7
100
AcDbPolyline
 90
        2
 70
     0
 43
0.0
 10
508.678236895794
 20
-4479.09125552037
 10
1102.86577616445
 20
-4479.09125552037
  0
LWPOLYLINE
  5
293
330
1F
100
AcDbEntity
  8
$DDT_AUDIT_GENERATED__93_
  6
Continuous
 62
     7
100
AcDbPolyline
 90
        2
 70
     0
 43
0.0
 10
569.759984215518
 20
-4479.09125552037
 10
1102.86577616445
 20
-4479.09125552037
  0
LWPOLYLINE
  5
294
330
1F
100
AcDbEntity
  8
$DDT_AUDIT_GENERATED__93_
  6
Continuous
 62
     7
100
AcDbPolyline
 90
        2
 70
     0
 43
0.0
 10
1153.83652365559
 20
-4479.09125552037
 10
1153.85315358952
 20
-4795.40922877615
  0
LWPOLYLINE
  5
295
330
1F
100
AcDbEntity
  8
$DDT_AUDIT_GENERATED__93_
  6
Continuous
 62
     7
100
AcDbPolyline
 90
        2
 70
     0
 43
0.0
 10
1153.83652365559
 20
-4519.85122357935
 10
1153.85315358952
 20
-4782.43788031185
  0
LWPOLYLINE
  5
296
330
1F
100
AcDbEntity
  8
$DDT_AUDIT_GENERATED__93_
  6
Continuous
 62
     7
100
AcDbPolyline
 90
        2
 70
     0
 43
0.0
 10
1153.83652365559
 20
-4479.09125552037
 10
1143.64237415736
 20
-4479.09125552037
  0
LWPOLYLINE
  5
297
330
1F
100
AcDbEntity
  8
$DDT_AUDIT_GENERATED__93_
  6
Continuous
 62
     7
100
AcDbPolyline
 90
        2
 70
     0
 43
0.0
 10
1153.83652365559
 20
-4479.09125552037
 10
1153.83652365559
 20
-4519.85122357935
  0
LWPOLYLINE
  5
298
330
1F
100
AcDbEntity
  8
$DDT_AUDIT_GENERATED__93_
  6
Continuous
 62
     7
100
AcDbPolyline
 90
        2
 70
     0
 43
0.0
 10
1102.86577616445
 20
-4479.09125552037
 10
1143.64237415736
 20
-4479.09125552037
  0
LWPOLYLINE
  5
299
330
1F
100
AcDbEntity
  8
$DDT_AUDIT_GENERATED__93_
  6
Continuous
 62
     7
100
AcDbPolyline
 90
        2
 70
     0
 43
0.0
 10
1153.85315358952
 20
-4782.43788031185
 10
1153.85315358952
 20
-4682.52523726886
  0
LWPOLYLINE
  5
29A
330
1F
100
AcDbEntity
  8
$DDT_AUDIT_GENERATED__93_
  6
Continuous
 62
     7
100
AcDbPolyline
 90
        2
 70
     0
 43
0.0
 10
508.678236895794
 20
-4795.67530771901
 10
508.678236895794
 20
-4479.09125552037
  0
LWPOLYLINE
  5
29B
330
1F
100
AcDbEntity
  8
$DDT_AUDIT_GENERATED__93_
  6
Continuous
 62
     7
100
AcDbPolyline
 90
        2
 70
     0
 43
0.0
 10
508.678236895794
 20
-4795.67530771901
 10
1153.85315358952
 20
-4795.67530771901
  0
LWPOLYLINE
  5
29C
330
1F
100
AcDbEntity
  8
$DDT_AUDIT_GENERATED__93_
  6
Continuous
 62
     7
100
AcDbPolyline
 90
        2
 70
     0
 43
0.0
 10
513.484287801157
 20
-4794.26176333508
 10
1153.85315358952
 20
-4794.26176333508
  0
LWPOLYLINE
  5
29D
330
1F
100
AcDbEntity
  8
$DDT_AUDIT_GENERATED__93_
  6
Continuous
 62
     7
100
AcDbPolyline
 90
        2
 70
     0
 43
0.0
 10
-1716.19073360898
 20
1556.9594530038
 10
-2546.98897281367
 20
1556.9594530038
  0
LWPOLYLINE
  5
29E
330
1F
100
AcDbEntity
  8
$DDT_AUDIT_GENERATED__93_
  6
Continuous
 62
     7
100
AcDbPolyline
 90
        2
 70
     0
 43
0.0
 10
-2546.98897281367
 20
1548.54470643593
 10
-2546.98897281367
 20
1556.9594530038
  0
LWPOLYLINE
  5
29F
330
1F
100
AcDbEntity
  8
$DDT_AUDIT_GENERATED__93_
  6
Continuous
 62
     7
100
AcDbPolyline
 90
        2
 70
     0
 43
0.0
 10
-2546.98897281367
 20
1312.00052623562
 10
-2546.98897281367
 20
1325.32110331242
  0
LWPOLYLINE
  5
2A0
330
1F
100
AcDbEntity
  8
$DDT_AUDIT_GENERATED__93_
  6
Continuous
 62
     7
100
AcDbPolyline
 90
        2
 70
     0
 43
0.0
 10
-2546.98897281367
 20
1325.32110331242
 10
-2546.98897281367
 20
1548.54470643593
  0
LWPOLYLINE
  5
2A1
330
1F
100
AcDbEntity
  8
$DDT_AUDIT_GENERATED__93_
  6
Continuous
 62
     7
100
AcDbPolyline
 90
        2
 70
     0
 43
0.0
 10
-2546.98897281367
 20
988.332122183398
 10
-1716.19073360898
 20
988.332122183398
  0
LWPOLYLINE
  5
2A2
330
1F
100
AcDbEntity
  8
$DDT_AUDIT_GENERATED__93_
  6
Continuous
 62
     7
100
AcDbPolyline
 90
        2
 70
     0
 43
0.0
 10
-2372.89019451522
 20
1116.31609369785
 10
-1716.19073360898
 20
1116.31609369785
  0
LWPOLYLINE
  5
2A3
330
1F
100
AcDbEntity
  8
$DDT_AUDIT_GENERATED__93_
  6
Continuous
 62
     7
100
AcDbPolyline
 90
        2
 70
     0
 43
0.0
 10
-1716.19073360898
 20
-1334.28759995365
 10
-2669.30213685847
 20
-1334.28759995365
  0
LWPOLYLINE
  5
2A4
330
1F
100
AcDbEntity
  8
$DDT_AUDIT_GENERATED__93_
  6
Continuous
 62
     7
100
AcDbPolyline
 90
        2
 70
     0
 43
0.0
 10
-2669.30213685847
 20
-1342.70234652152
 10
-2669.30213685847
 20
-1334.28759995365
  0
LWPOLYLINE
  5
2A5
330
1F
100
AcDbEntity
  8
$DDT_AUDIT_GENERATED__93_
  6
Continuous
 62
     7
100
AcDbPolyline
 90
        2
 70
     0
 43
0.0
 10
-2669.30213685847
 20
-1579.27978658969
 10
-2669.30213685847
 20
-1565.94257957896
  0
LWPOLYLINE
  5
2A6
330
1F
100
AcDbEntity
  8
$DDT_AUDIT_GENERATED__93_
  6
Continuous
 62
     7
100
AcDbPolyline
 90
        2
 70
     0
 43
0.0
 10
-2669.30213685847
 20
-1565.94257957896
 10
-2669.30213685847
 20
-1342.70234652152
  0
LWPOLYLINE
  5
2A7
330
1F
100
AcDbEntity
  8
$DDT_AUDIT_GENERATED__93_
  6
Continuous
 62
     7
100
AcDbPolyline
 90
        2
 70
     0
 43
0.0
 10
-2669.30213685847
 20
-1902.91493077406
 10
-1716.19073360898
 20
-1902.91493077406
  0
LWPOLYLINE
  5
2A8
330
1F
100
AcDbEntity
  8
$DDT_AUDIT_GENERATED__93_
  6
Continuous
 62
     7
100
AcDbPolyline
 90
        2
 70
     0
 43
0.0
 10
-2495.20335856002
 20
-1774.9309592596
 10
-1716.19073360898
 20
-1774.9309592596
  0
LWPOLYLINE
  5
2A9
330
1F
100
AcDbEntity
  8
$DDT_AUDIT_GENERATED__93_
  6
Continuous
 62
     7
100
AcDbPolyline
 90
        2
 70
     0
 43
0.0
 10
-2617.53315253876
 20
-4666.21127208491
 10
-1716.19073360898
 20
-4666.21127208491
  0
LWPOLYLINE
  5
2AA
330
1F
100
AcDbEntity
  8
$DDT_AUDIT_GENERATED__93_
  6
Continuous
 62
     7
100
AcDbPolyline
 90
        2
 70
     0
 43
0.0
 10
-2791.63193083721
 20
-4794.17861366543
 10
-1716.19073360898
 20
-4794.16198373151
  0
LWPOLYLINE
  5
2AB
330
1F
100
AcDbEntity
  8
$DDT_AUDIT_GENERATED__93_
  6
Continuous
 62
     7
100
AcDbPolyline
 90
        2
 70
     0
 43
0.0
 10
-2791.63193083721
 20
-4457.18963253641
 10
-2791.63193083721
 20
-4233.98265934683
  0
LWPOLYLINE
  5
2AC
330
1F
100
AcDbEntity
  8
$DDT_AUDIT_GENERATED__93_
  6
Continuous
 62
     7
100
AcDbPolyline
 90
        2
 70
     0
 43
0.0
 10
-2791.63193083721
 20
-4470.52683954714
 10
-2791.63193083721
 20
-4457.18963253641
  0
LWPOLYLINE
  5
2AD
330
1F
100
AcDbEntity
  8
$DDT_AUDIT_GENERATED__93_
  6
Continuous
 62
     7
100
AcDbPolyline
 90
        2
 70
     0
 43
0.0
 10
-2791.63193083721
 20
-4233.98265934683
 10
-2791.63193083721
 20
-4225.56791277896
  0
LWPOLYLINE
  5
2AE
330
1F
100
AcDbEntity
  8
$DDT_AUDIT_GENERATED__93_
  6
Continuous
 62
     7
100
AcDbPolyline
 90
        2
 70
     0
 43
0.0
 10
-1716.19073360898
 20
-4225.56791277896
 10
-2791.63193083721
 20
-4225.56791277896
  0
LWPOLYLINE
  5
2AF
330
1F
100
AcDbEntity
  8
$DDT_AUDIT_GENERATED__93_
  6
Continuous
 62
     7
100
AcDbPolyline
 90
        2
 70
     0
 43
0.0
 10
-640.749536380749
 20
-4225.56791277896
 10
-1716.19073360898
 20
-4225.56791277896
  0
LWPOLYLINE
  5
2B0
330
1F
100
AcDbEntity
  8
$DDT_AUDIT_GENERATED__93_
  6
Continuous
 62
     7
100
AcDbPolyline
 90
        2
 70
     0
 43
0.0
 10
-640.749536380749
 20
-4225.56791277896
 10
-640.749536380749
 20
-4233.98265934683
  0
LWPOLYLINE
  5
2B1
330
1F
100
AcDbEntity
  8
$DDT_AUDIT_GENERATED__93_
  6
Continuous
 62
     7
100
AcDbPolyline
 90
        2
 70
     0
 43
0.0
 10
-640.749536380749
 20
-4457.18963253641
 10
-640.749536380749
 20
-4470.52683954714
  0
LWPOLYLINE
  5
2B2
330
1F
100
AcDbEntity
  8
$DDT_AUDIT_GENERATED__93_
  6
Continuous
 62
     7
100
AcDbPolyline
 90
        2
 70
     0
 43
0.0
 10
-640.749536380749
 20
-4233.98265934683
 10
-640.749536380749
 20
-4457.18963253641
  0
LWPOLYLINE
  5
2B3
330
1F
100
AcDbEntity
  8
$DDT_AUDIT_GENERATED__93_
  6
Continuous
 62
     7
100
AcDbPolyline
 90
        2
 70
     0
 43
0.0
 10
-1716.19073360898
 20
-4794.16198373151
 10
-640.749536380749
 20
-4794.17861366543
  0
LWPOLYLINE
  5
2B4
330
1F
100
AcDbEntity
  8
$DDT_AUDIT_GENERATED__93_
  6
Continuous
 62
     7
100
AcDbPolyline
 90
        2
 70
     0
 43
0.0
 10
-1716.19073360898
 20
-4666.21127208491
 10
-814.864944613125
 20
-4666.21127208491
  0
LWPOLYLINE
  5
2B5
330
1F
100
AcDbEntity
  8
$DDT_AUDIT_GENERATED__93_
  6
Continuous
 62
     7
100
AcDbPolyline
 90
        2
 70
     0
 43
0.0
 10
-1716.19073360898
 20
-1774.9309592596
 10
-937.178108657933
 20
-1774.9309592596
  0
LWPOLYLINE
  5
2B6
330
1F
100
AcDbEntity
  8
$DDT_AUDIT_GENERATED__93_
  6
Continuous
 62
     7
100
AcDbPolyline
 90
        2
 70
     0
 43
0.0
 10
-1716.19073360898
 20
-1902.91493077406
 10
-763.079330359485
 20
-1902.91493077406
  0
LWPOLYLINE
  5
2B7
330
1F
100
AcDbEntity
  8
$DDT_AUDIT_GENERATED__93_
  6
Continuous
 62
     7
100
AcDbPolyline
 90
        2
 70
     0
 43
0.0
 10
-763.079330359485
 20
-1342.70234652152
 10
-763.079330359485
 20
-1565.94257957896
  0
LWPOLYLINE
  5
2B8
330
1F
100
AcDbEntity
  8
$DDT_AUDIT_GENERATED__93_
  6
Continuous
 62
     7
100
AcDbPolyline
 90
        2
 70
     0
 43
0.0
 10
-763.079330359485
 20
-1565.94257957896
 10
-763.079330359485
 20
-1579.27978658969
  0
LWPOLYLINE
  5
2B9
330
1F
100
AcDbEntity
  8
$DDT_AUDIT_GENERATED__93_
  6
Continuous
 62
     7
100
AcDbPolyline
 90
        2
 70
     0
 43
0.0
 10
-763.079330359485
 20
-1334.28759995365
 10
-763.079330359485
 20
-1342.70234652152
  0
LWPOLYLINE
  5
2BA
330
1F
100
AcDbEntity
  8
$DDT_AUDIT_GENERATED__93_
  6
Continuous
 62
     7
100
AcDbPolyline
 90
        2
 70
     0
 43
0.0
 10
-763.079330359485
 20
-1334.28759995365
 10
-1716.19073360898
 20
-1334.28759995365
  0
LWPOLYLINE
  5
2BB
330
1F
100
AcDbEntity
  8
$DDT_AUDIT_GENERATED__93_
  6
Continuous
 62
     7
100
AcDbPolyline
 90
        2
 70
     0
 43
0.0
 10
-1716.19073360898
 20
1116.31609369785
 10
-1059.49127270274
 20
1116.31609369785
  0
LWPOLYLINE
  5
2BC
330
1F
100
AcDbEntity
  8
$DDT_AUDIT_GENERATED__93_
  6
Continuous
 62
     7
100
AcDbPolyline
 90
        2
 70
     0
 43
0.0
 10
-1716.19073360898
 20
988.332122183398
 10
-885.375864470363
 20
988.332122183398
  0
LWPOLYLINE
  5
2BD
330
1F
100
AcDbEntity
  8
$DDT_AUDIT_GENERATED__93_
  6
Continuous
 62
     7
100
AcDbPolyline
 90
        2
 70
     0
 43
0.0
 10
-885.375864470363
 20
1548.54470643593
 10
-885.375864470363
 20
1325.32110331242
  0
LWPOLYLINE
  5
2BE
330
1F
100
AcDbEntity
  8
$DDT_AUDIT_GENERATED__93_
  6
Continuous
 62
     7
100
AcDbPolyline
 90
        2
 70
     0
 43
0.0
 10
-885.375864470363
 20
1325.32110331242
 10
-885.375864470363
 20
1312.00052623562
  0
LWPOLYLINE
  5
2BF
330
1F
100
AcDbEntity
  8
$DDT_AUDIT_GENERATED__93_
  6
Continuous
 62
     7
100
AcDbPolyline
 90
        2
 70
     0
 43
0.0
 10
-885.375864470363
 20
1556.9594530038
 10
-885.375864470363
 20
1548.54470643593
  0
LWPOLYLINE
  5
2C0
330
1F
100
AcDbEntity
  8
$DDT_AUDIT_GENERATED__93_
  6
Continuous
 62
     7
100
AcDbPolyline
 90
        2
 70
     0
 43
0.0
 10
-885.375864470363
 20
1556.9594530038
 10
-1716.19073360898
 20
1556.9594530038
  0
LWPOLYLINE
  5
2C1
330
1F
100
AcDbEntity
  8
$DDT_AUDIT_GENERATED__93_
  6
Continuous
 62
     5
100
AcDbPolyline
 90
        2
 70
     0
 43
0.0
 10
-2669.68462533883
 20
-5075.57372567117
 10
-2667.93848227633
 20
-5075.57372567117
  0
LWPOLYLINE
  5
2C2
330
1F
100
AcDbEntity
  8
$DDT_AUDIT_GENERATED__3B_
  6
Continuous
 62
     7
100
AcDbPolyline
 90
        2
 70
     0
 43
0.0
 10
-2423.86094200636
 20
1101.01655448355
 10
-2423.86094200636
 20
988.332122183398
  0
LWPOLYLINE
  5
2C3
330
1F
100
AcDbEntity
  8
$DDT_AUDIT_GENERATED__3B_
  6
Continuous
 62
     7
100
AcDbPolyline
 90
        2
 70
     0
 43
0.0
 10
-2546.98897281367
 20
995.649293111979
 10
-2546.98897281367
 20
988.332122183398
  0
LWPOLYLINE
  5
2C4
330
1F
100
AcDbEntity
  8
$DDT_AUDIT_GENERATED__3B_
  6
Continuous
 62
     7
100
AcDbPolyline
 90
        2
 70
     0
 43
0.0
 10
-2546.15747611724
 20
-1790.2304984739
 10
-2546.15747611724
 20
-1902.91493077406
  0
LWPOLYLINE
  5
2C5
330
1F
100
AcDbEntity
  8
$DDT_AUDIT_GENERATED__3B_
  6
Continuous
 62
     7
100
AcDbPolyline
 90
        2
 70
     0
 43
0.0
 10
-2669.30213685847
 20
-1895.59775984548
 10
-2669.30213685847
 20
-1902.91493077406
  0
LWPOLYLINE
  5
2C6
330
1F
100
AcDbEntity
  8
$DDT_AUDIT_GENERATED__3B_
  6
Continuous
 62
     1
100
AcDbPolyline
 90
        2
 70
     0
 43
0.0
 10
-1716.19073360898
 20
-4225.56791277896
 10
-1716.19073360898
 20
-4867.20105435307
  0
LWPOLYLINE
  5
2C7
330
1F
100
AcDbEntity
  8
$DDT_AUDIT_GENERATED__3B_
  6
Continuous
 62
     7
100
AcDbPolyline
 90
        2
 70
     0
 43
0.0
 10
-2791.63193083721
 20
-4786.86144273685
 10
-2791.63193083721
 20
-4794.17861366543
  0
LWPOLYLINE
  5
2C8
330
1F
100
AcDbEntity
  8
$DDT_AUDIT_GENERATED__3B_
  6
Continuous
 62
     7
100
AcDbPolyline
 90
        2
 70
     0
 43
0.0
 10
-2668.48727009597
 20
-4681.51081129921
 10
-2668.47064016204
 20
-4794.17861366543
  0
LWPOLYLINE
  5
2C9
330
1F
100
AcDbEntity
  8
$DDT_AUDIT_GENERATED__3B_
  6
Continuous
 62
     7
100
AcDbPolyline
 90
        2
 70
     0
 43
0.0
 10
-763.894197121986
 20
-4794.17861366543
 10
-763.894197121986
 20
-4681.51081129921
  0
LWPOLYLINE
  5
2CA
330
1F
100
AcDbEntity
  8
$DDT_AUDIT_GENERATED__3B_
  6
Continuous
 62
     7
100
AcDbPolyline
 90
        2
 70
     0
 43
0.0
 10
-640.749536380749
 20
-4794.17861366543
 10
-640.766166314677
 20
-4786.86144273685
  0
LWPOLYLINE
  5
2CB
330
1F
100
AcDbEntity
  8
$DDT_AUDIT_GENERATED__3B_
  6
Continuous
 62
     7
100
AcDbPolyline
 90
        2
 70
     0
 43
0.0
 10
-763.079330359485
 20
-1902.91493077406
 10
-763.079330359485
 20
-1895.59775984548
  0
LWPOLYLINE
  5
2CC
330
1F
100
AcDbEntity
  8
$DDT_AUDIT_GENERATED__3B_
  6
Continuous
 62
     7
100
AcDbPolyline
 90
        2
 70
     0
 43
0.0
 10
-886.207361166793
 20
-1902.91493077406
 10
-886.207361166793
 20
-1790.2304984739
  0
LWPOLYLINE
  5
2CD
330
1F
100
AcDbEntity
  8
$DDT_AUDIT_GENERATED__3B_
  6
Continuous
 62
     1
100
AcDbPolyline
 90
        2
 70
     0
 43
0.0
 10
-1716.19073360898
 20
915.2855360317258
 10
-1716.19073360898
 20
1556.9594530038
  0
LWPOLYLINE
  5
2CE
330
1F
100
AcDbEntity
  8
$DDT_AUDIT_GENERATED__3B_
  6
Continuous
 62
     7
100
AcDbPolyline
 90
        2
 70
     0
 43
0.0
 10
-885.375864470363
 20
988.332122183398
 10
-885.375864470363
 20
995.649293111979
  0
LWPOLYLINE
  5
2CF
330
1F
100
AcDbEntity
  8
$DDT_AUDIT_GENERATED__3B_
  6
Continuous
 62
     7
100
AcDbPolyline
 90
        2
 70
     0
 43
0.0
 10
-1008.5205252116
 20
988.332122183398
 10
-1008.5205252116
 20
1101.01655448355
  0
LWPOLYLINE
  5
2D0
330
1F
100
AcDbEntity
  8
$DDT_AUDIT_GENERATED__3B_
  6
Continuous
 62
     1
100
AcDbPolyline
 90
        2
 70
     0
 43
0.0
 10
-1716.19073360898
 20
-1334.28759995365
 10
-1716.19073360898
 20
-1975.95400139562
  0
ENDSEC
  0
SECTION
  2
OBJECTS
  0
DICTIONARY
  5
C
330
0
100
AcDbDictionary
281
     1
  3
ACAD_GROUP
350
D
  3
ACAD_LAYOUT
350
1A
  3
ACAD_MATERIAL
350
43
  3
ACAD_MLEADERSTYLE
350
2D3
  3
ACAD_MLINESTYLE
350
17
  3
ACAD_PLOTSETTINGS
350
19
  3
ACAD_PLOTSTYLENAME
350
E
  3
ACAD_SCALELIST
350
47
  3
ACAD_VISUALSTYLE
350
2A
  3
AcDbVariableDictionary
350
2D1
  0
DICTIONARY
  5
D
102
{ACAD_REACTORS
330
C
102
}
330
C
100
AcDbDictionary
281
     1
  0
DICTIONARY
  5
1A
102
{ACAD_REACTORS
330
C
102
}
330
C
100
AcDbDictionary
281
     1
  3
Layout1
350
1E
  3
Layout2
350
26
  3
Model
350
22
  0
DICTIONARY
  5
43
102
{ACAD_REACTORS
330
C
102
}
330
C
100
AcDbDictionary
281
     1
  3
ByBlock
350
45
  3
ByLayer
350
44
  3
Global
350
46
  0
DICTIONARY
  5
2D3
102
{ACAD_REACTORS
330
C
102
}
330
C
100
AcDbDictionary
281
     1
  0
DICTIONARY
  5
17
102
{ACAD_REACTORS
330
C
102
}
330
C
100
AcDbDictionary
281
     1
  3
Standard
350
18
  0
DICTIONARY
  5
19
102
{ACAD_REACTORS
330
C
102
}
330
C
100
AcDbDictionary
281
     1
  0
ACDBDICTIONARYWDFLT
  5
E
102
{ACAD_REACTORS
330
C
102
}
330
C
100
AcDbDictionary
281
     1
  3
Normal
350
F
100
AcDbDictionaryWithDefault
340
F
  0
DICTIONARY
  5
47
102
{ACAD_REACTORS
330
C
102
}
330
C
100
AcDbDictionary
281
     1
  3
A0
350
48
  3
A1
350
49
  3
A2
350
4A
  3
A3
350
4B
  3
A4
350
4C
  3
A5
350
4D
  3
A6
350
4E
  3
A7
350
4F
  3
A8
350
50
  3
A9
350
51
  3
B0
350
52
  3
B1
350
53
  3
B2
350
54
  3
B3
350
55
  3
B4
350
56
  3
B5
350
57
  3
B6
350
58
  3
B7
350
59
  3
B8
350
5A
  3
B9
350
5B
  3
C0
350
5C
  3
C1
350
5D
  3
C2
350
5E
  3
C3
350
5F
  3
C4
350
60
  3
C5
350
61
  3
C6
350
62
  3
C7
350
63
  3
C8
350
64
  3
C9
350
65
  3
D0
350
66
  3
D1
350
67
  3
D2
350
68
  0
DICTIONARY
  5
2A
102
{ACAD_REACTORS
330
C
102
}
330
C
100
AcDbDictionary
281
     1
  3
2dWireframe
350
2F
  3
Basic
350
32
  3
Brighten
350
36
  3
ColorChange
350
3A
  3
Conceptual
350
34
  3
Dim
350
35
  3
EdgeColorOff
350
3D
  3
Facepattern
350
39
  3
Flat
350
2B
  3
FlatWithEdges
350
2C
  3
Gouraud
350
2D
  3
GouraudWithEdges
350
2E
  3
Hidden
350
31
  3
JitterOff
350
3B
  3
Linepattern
350
38
  3
OverhangOff
350
3C
  3
Realistic
350
33
  3
Shaded
350
42
  3
Shaded with edges
350
41
  3
Shades of Gray
350
3E
  3
Sketchy
350
3F
  3
Thicken
350
37
  3
Wireframe
350
30
  3
X-Ray
350
40
  0
DICTIONARY
  5
2D1
102
{ACAD_REACTORS
330
C
102
}
330
C
100
AcDbDictionary
281
     1
  3
CANNOSCALE
350
2D8
  3
DIMASSOC
350
2D6
  3
HIDETEXT
350
2D7
  3
MSLTSCALE
350
2D9
  0
LAYOUT
  5
1E
102
{ACAD_REACTORS
330
1A
102
}
330
1A
100
AcDbPlotSettings
  1

  2
none_device
  4

  6

 40
0.0
 41
0.0
 42
0.0
 43
0.0
 44
0.0
 45
0.0
 46
0.0
 47
0.0
 48
0.0
 49
0.0
140
0.0
141
0.0
142
1.0
143
1.0
 70
   688
 72
     0
 73
     0
 74
     5
  7

 75
    16
147
1.0
148
0.0
149
0.0
100
AcDbLayout
  1
Layout1
 70
     1
 71
     1
 10
0.0
 20
0.0
 11
12.0
 21
9.0
 12
0.0
 22
0.0
 32
0.0
 14
1.00000000000000E+20
 24
1.00000000000000E+20
 34
1.00000000000000E+20
 15
-1.00000000000000E+20
 25
-1.00000000000000E+20
 35
-1.00000000000000E+20
146
0.0
 13
0.0
 23
0.0
 33
0.0
 16
1.0
 26
0.0
 36
0.0
 17
0.0
 27
1.0
 37
0.0
 76
     0
330
1B
  0
LAYOUT
  5
26
102
{ACAD_REACTORS
330
1A
102
}
330
1A
100
AcDbPlotSettings
  1

  2
none_device
  4

  6

 40
0.0
 41
0.0
 42
0.0
 43
0.0
 44
0.0
 45
0.0
 46
0.0
 47
0.0
 48
0.0
 49
0.0
140
0.0
141
0.0
142
1.0
143
1.0
 70
   688
 72
     0
 73
     0
 74
     5
  7

 75
    16
147
1.0
148
0.0
149
0.0
100
AcDbLayout
  1
Layout2
 70
     1
 71
     2
 10
0.0
 20
0.0
 11
0.0
 21
0.0
 12
0.0
 22
0.0
 32
0.0
 14
0.0
 24
0.0
 34
0.0
 15
0.0
 25
0.0
 35
0.0
146
0.0
 13
0.0
 23
0.0
 33
0.0
 16
1.0
 26
0.0
 36
0.0
 17
0.0
 27
1.0
 37
0.0
 76
     0
330
23
  0
LAYOUT
  5
22
102
{ACAD_REACTORS
330
1A
102
}
330
1A
100
AcDbPlotSettings
  1

  2
none_device
  4
Letter_(8.50_x_11.00_Inches)
  6

 40
6.35
 41
6.35
 42
6.35000508
 43
6.35000508
 44
215.9
 45
279.4
 46
0.0
 47
0.0
 48
0.0
 49
0.0
140
0.0
141
0.0
142
1.0
143
1.0
 70
  1712
 72
     0
 73
     0
 74
     0
  7

 75
     0
147
1.0
148
0.0
149
0.0
100
AcDbLayout
  1
Model
 70
     1
 71
     0
 10
0.0
 20
0.0
 11
12.0
 21
9.0
 12
0.0
 22
0.0
 32
0.0
 14
-3014.155782552101
 24
-10669.142705447
 34
0.0
 15
1154.58487068237
 25
4448.144043931559
 35
0.0
146
0.0
 13
0.0
 23
0.0
 33
0.0
 16
1.0
 26
0.0
 36
0.0
 17
0.0
 27
1.0
 37
0.0
 76
     0
330
1F
331
29
  0
MATERIAL
  5
45
102
{ACAD_REACTORS
330
43
102
}
102
{ACAD_XDICTIONARY
360
30C
102
}
330
43
100
AcDbMaterial
  1
ByBlock
  0
MATERIAL
  5
44
102
{ACAD_REACTORS
330
43
102
}
102
{ACAD_XDICTIONARY
360
30A
102
}
330
43
100
AcDbMaterial
  1
ByLayer
  0
MATERIAL
  5
46
102
{ACAD_REACTORS
330
43
102
}
102
{ACAD_XDICTIONARY
360
30E
102
}
330
43
100
AcDbMaterial
  1
Global
  0
MLINESTYLE
  5
18
102
{ACAD_REACTORS
330
17
102
}
330
17
100
AcDbMlineStyle
  2
Standard
 70
     0
  3

 62
   256
 51
90.0
 52
90.0
 71
     2
 49
0.5
 62
   256
  6
BYLAYER
 49
-0.5
 62
   256
  6
BYLAYER
  0
ACDBPLACEHOLDER
  5
F
102
{ACAD_REACTORS
330
E
102
}
330
E
  0
SCALE
  5
48
102
{ACAD_REACTORS
330
47
102
}
330
47
100
AcDbScale
 70
     0
300
1:1
140
1.0
141
1.0
290
     1
  0
SCALE
  5
49
102
{ACAD_REACTORS
330
47
102
}
330
47
100
AcDbScale
 70
     0
300
1:2
140
1.0
141
2.0
290
     0
  0
SCALE
  5
4A
102
{ACAD_REACTORS
330
47
102
}
330
47
100
AcDbScale
 70
     0
300
1:4
140
1.0
141
4.0
290
     0
  0
SCALE
  5
4B
102
{ACAD_REACTORS
330
47
102
}
330
47
100
AcDbScale
 70
     0
300
1:5
140
1.0
141
5.0
290
     0
  0
SCALE
  5
4C
102
{ACAD_REACTORS
330
47
102
}
330
47
100
AcDbScale
 70
     0
300
1:8
140
1.0
141
8.0
290
     0
  0
SCALE
  5
4D
102
{ACAD_REACTORS
330
47
102
}
330
47
100
AcDbScale
 70
     0
300
1:10
140
1.0
141
10.0
290
     0
  0
SCALE
  5
4E
102
{ACAD_REACTORS
330
47
102
}
330
47
100
AcDbScale
 70
     0
300
1:16
140
1.0
141
16.0
290
     0
  0
SCALE
  5
4F
102
{ACAD_REACTORS
330
47
102
}
330
47
100
AcDbScale
 70
     0
300
1:20
140
1.0
141
20.0
290
     0
  0
SCALE
  5
50
102
{ACAD_REACTORS
330
47
102
}
330
47
100
AcDbScale
 70
     0
300
1:30
140
1.0
141
30.0
290
     0
  0
SCALE
  5
51
102
{ACAD_REACTORS
330
47
102
}
330
47
100
AcDbScale
 70
     0
300
1:40
140
1.0
141
40.0
290
     0
  0
SCALE
  5
52
102
{ACAD_REACTORS
330
47
102
}
330
47
100
AcDbScale
 70
     0
300
1:50
140
1.0
141
50.0
290
     0
  0
SCALE
  5
53
102
{ACAD_REACTORS
330
47
102
}
330
47
100
AcDbScale
 70
     0
300
1:100
140
1.0
141
100.0
290
     0
  0
SCALE
  5
54
102
{ACAD_REACTORS
330
47
102
}
330
47
100
AcDbScale
 70
     0
300
2:1
140
2.0
141
1.0
290
     0
  0
SCALE
  5
55
102
{ACAD_REACTORS
330
47
102
}
330
47
100
AcDbScale
 70
     0
300
4:1
140
4.0
141
1.0
290
     0
  0
SCALE
  5
56
102
{ACAD_REACTORS
330
47
102
}
330
47
100
AcDbScale
 70
     0
300
8:1
140
8.0
141
1.0
290
     0
  0
SCALE
  5
57
102
{ACAD_REACTORS
330
47
102
}
330
47
100
AcDbScale
 70
     0
300
10:1
140
10.0
141
1.0
290
     0
  0
SCALE
  5
58
102
{ACAD_REACTORS
330
47
102
}
330
47
100
AcDbScale
 70
     0
300
100:1
140
100.0
141
1.0
290
     0
  0
SCALE
  5
59
102
{ACAD_REACTORS
330
47
102
}
330
47
100
AcDbScale
 70
     0
300
1/128" = 1'-0"
140
0.0078125
141
12.0
290
     0
  0
SCALE
  5
5A
102
{ACAD_REACTORS
330
47
102
}
330
47
100
AcDbScale
 70
     0
300
1/64" = 1'-0"
140
0.015625
141
12.0
290
     0
  0
SCALE
  5
5B
102
{ACAD_REACTORS
330
47
102
}
330
47
100
AcDbScale
 70
     0
300
1/32" = 1'-0"
140
0.03125
141
12.0
290
     0
  0
SCALE
  5
5C
102
{ACAD_REACTORS
330
47
102
}
330
47
100
AcDbScale
 70
     0
300
1/16" = 1'-0"
140
0.0625
141
12.0
290
     0
  0
SCALE
  5
5D
102
{ACAD_REACTORS
330
47
102
}
330
47
100
AcDbScale
 70
     0
300
3/32" = 1'-0"
140
0.09375
141
12.0
290
     0
  0
SCALE
  5
5E
102
{ACAD_REACTORS
330
47
102
}
330
47
100
AcDbScale
 70
     0
300
1/8" = 1'-0"
140
0.125
141
12.0
290
     0
  0
SCALE
  5
5F
102
{ACAD_REACTORS
330
47
102
}
330
47
100
AcDbScale
 70
     0
300
3/16" = 1'-0"
140
0.1875
141
12.0
290
     0
  0
SCALE
  5
60
102
{ACAD_REACTORS
330
47
102
}
330
47
100
AcDbScale
 70
     0
300
1/4" = 1'-0"
140
0.25
141
12.0
290
     0
  0
SCALE
  5
61
102
{ACAD_REACTORS
330
47
102
}
330
47
100
AcDbScale
 70
     0
300
3/8" = 1'-0"
140
0.375
141
12.0
290
     0
  0
SCALE
  5
62
102
{ACAD_REACTORS
330
47
102
}
330
47
100
AcDbScale
 70
     0
300
1/2" = 1'-0"
140
0.5
141
12.0
290
     0
  0
SCALE
  5
63
102
{ACAD_REACTORS
330
47
102
}
330
47
100
AcDbScale
 70
     0
300
3/4" = 1'-0"
140
0.75
141
12.0
290
     0
  0
SCALE
  5
64
102
{ACAD_REACTORS
330
47
102
}
330
47
100
AcDbScale
 70
     0
300
1" = 1'-0"
140
1.0
141
12.0
290
     0
  0
SCALE
  5
65
102
{ACAD_REACTORS
330
47
102
}
330
47
100
AcDbScale
 70
     0
300
1-1/2" = 1'-0"
140
1.5
141
12.0
290
     0
  0
SCALE
  5
66
102
{ACAD_REACTORS
330
47
102
}
330
47
100
AcDbScale
 70
     0
300
3" = 1'-0"
140
3.0
141
12.0
290
     0
  0
SCALE
  5
67
102
{ACAD_REACTORS
330
47
102
}
330
47
100
AcDbScale
 70
     0
300
6" = 1'-0"
140
6.0
141
12.0
290
     0
  0
SCALE
  5
68
102
{ACAD_REACTORS
330
47
102
}
330
47
100
AcDbScale
 70
     0
300
1'-0" = 1'-0"
140
12.0
141
12.0
290
     0
  0
VISUALSTYLE
  5
2F
102
{ACAD_REACTORS
330
2A
102
}
102
{ACAD_XDICTIONARY
360
2E2
102
}
330
2A
100
AcDbVisualStyle
  2
2dWireframe
 70
     4
 71
     0
 72
     2
 73
     0
 90
        0
 40
0.6
 41
30.0
 62
     5
 63
     7
 74
     1
 91
        4
 64
     7
 65
   257
 75
     1
175
     1
 42
1.0
 92
        0
 66
   257
 43
1.0
 76
     1
 77
     6
 78
     2
 67
     7
 79
     5
170
     0
171
     0
290
     0
174
     0
 93
        1
 44
0.0
173
     0
291
     0
 45
0.0
1001
ACAD
1000
AcDbSavedByObjectVersion
1070
     0
  0
VISUALSTYLE
  5
32
102
{ACAD_REACTORS
330
2A
102
}
102
{ACAD_XDICTIONARY
360
2E8
102
}
330
2A
100
AcDbVisualStyle
  2
Basic
 70
     7
 71
     1
 72
     0
 73
     1
 90
        0
 40
0.6
 41
30.0
 62
     5
 63
     7
 74
     0
 91
        4
 64
     7
 65
   257
 75
     1
175
     1
 42
1.0
 92
        8
 66
     7
 43
1.0
 76
     1
 77
     6
 78
     2
 67
     7
 79
     5
170
     0
171
     0
290
     0
174
     0
 93
        1
 44
0.0
173
     0
291
     1
 45
0.0
1001
ACAD
1000
AcDbSavedByObjectVersion
1070
     0
  0
VISUALSTYLE
  5
36
102
{ACAD_REACTORS
330
2A
102
}
102
{ACAD_XDICTIONARY
360
2F0
102
}
330
2A
100
AcDbVisualStyle
  2
Brighten
 70
    12
 71
     2
 72
     2
 73
     0
 90
        0
 40
0.6
 41
30.0
 62
     5
 63
     7
 74
     1
 91
        4
 64
     7
 65
   257
 75
     1
175
     1
 42
1.0
 92
        8
 66
     7
 43
1.0
 76
     1
 77
     6
 78
     2
 67
     7
 79
     5
170
     0
171
     0
290
     0
174
     0
 93
        1
 44
50.0
173
     0
291
     1
 45
0.0
1001
ACAD
1000
AcDbSavedByObjectVersion
1070
     0
  0
VISUALSTYLE
  5
3A
102
{ACAD_REACTORS
330
2A
102
}
102
{ACAD_XDICTIONARY
360
2F8
102
}
330
2A
100
AcDbVisualStyle
  2
ColorChange
 70
    16
 71
     2
 72
     2
 73
     3
 90
        0
 40
0.6
 41
30.0
 62
     5
 63
     8
 74
     1
 91
        4
 64
     7
 65
   257
 75
     1
175
     1
 42
1.0
 92
        8
 66
     8
 43
1.0
 76
     1
 77
     6
 78
     2
 67
     7
 79
     5
170
     0
171
     0
290
     0
174
     0
 93
        1
 44
0.0
173
     0
291
     1
 45
0.0
1001
ACAD
1000
AcDbSavedByObjectVersion
1070
     0
  0
VISUALSTYLE
  5
34
102
{ACAD_REACTORS
330
2A
102
}
102
{ACAD_XDICTIONARY
360
2EC
102
}
330
2A
100
AcDbVisualStyle
  2
Conceptual
 70
     9
 71
     3
 72
     2
 73
     0
 90
        0
 40
0.6
 41
30.0
 62
     5
 63
     7
 74
     2
 91
        2
 64
     7
 65
   257
 75
     1
175
     1
 42
179.0
 92
        8
 66
     7
 43
1.0
 76
     1
 77
     6
 78
     2
 67
     7
 79
     3
170
     0
171
     0
290
     0
174
     0
 93
        1
 44
0.0
173
     0
291
     0
 45
0.0
1001
ACAD
1000
AcDbSavedByObjectVersion
1070
     0
  0
VISUALSTYLE
  5
35
102
{ACAD_REACTORS
330
2A
102
}
102
{ACAD_XDICTIONARY
360
2EE
102
}
330
2A
100
AcDbVisualStyle
  2
Dim
 70
    11
 71
     2
 72
     2
 73
     0
 90
        0
 40
0.6
 41
30.0
 62
     5
 63
     7
 74
     1
 91
        4
 64
     7
 65
   257
 75
     1
175
     1
 42
1.0
 92
        8
 66
     7
 43
1.0
 76
     1
 77
     6
 78
     2
 67
     7
 79
     5
170
     0
171
     0
290
     0
174
     0
 93
        1
 44
-50.0
173
     0
291
     1
 45
0.0
1001
ACAD
1000
AcDbSavedByObjectVersion
1070
     0
  0
VISUALSTYLE
  5
3D
102
{ACAD_REACTORS
330
2A
102
}
102
{ACAD_XDICTIONARY
360
2FE
102
}
330
2A
100
AcDbVisualStyle
  2
EdgeColorOff
 70
    22
 71
     2
 72
     2
 73
     0
 90
        0
 40
0.6
 41
30.0
 62
     5
 63
     7
 74
     1
 91
        4
 64
     7
 65
   257
 75
     1
175
     1
 42
1.0
 92
        8
 66
     7
 43
1.0
 76
     1
 77
     6
 78
     2
 67
     7
 79
     5
170
     0
171
     0
290
     0
174
     0
 93
        1
 44
0.0
173
     0
291
     1
 45
0.0
1001
ACAD
1000
AcDbSavedByObjectVersion
1070
     0
  0
VISUALSTYLE
  5
39
102
{ACAD_REACTORS
330
2A
102
}
102
{ACAD_XDICTIONARY
360
2F6
102
}
330
2A
100
AcDbVisualStyle
  2
Facepattern
 70
    15
 71
     2
 72
     2
 73
     0
 90
        0
 40
0.6
 41
30.0
 62
     5
 63
     7
 74
     1
 91
        4
 64
     7
 65
   257
 75
     1
175
     1
 42
1.0
 92
        8
 66
     7
 43
1.0
 76
     1
 77
     6
 78
     2
 67
     7
 79
     5
170
     0
171
     0
290
     0
174
     0
 93
        1
 44
0.0
173
     0
291
     1
 45
0.0
1001
ACAD
1000
AcDbSavedByObjectVersion
1070
     0
  0
VISUALSTYLE
  5
2B
102
{ACAD_REACTORS
330
2A
102
}
102
{ACAD_XDICTIONARY
360
2DA
102
}
330
2A
100
AcDbVisualStyle
  2
Flat
 70
     0
 71
     2
 72
     1
 73
     1
 90
        2
 40
0.6
 41
30.0
 62
     5
 63
     7
 74
     0
 91
        0
 64
     7
 65
   257
 75
     1
175
     1
 42
1.0
 92
        8
 66
     7
 43
1.0
 76
     1
 77
     6
 78
     2
 67
     7
 79
     5
170
     0
171
     0
290
     0
174
     0
 93
       13
 44
0.0
173
     0
291
     1
 45
0.0
1001
ACAD
1000
AcDbSavedByObjectVersion
1070
     0
  0
VISUALSTYLE
  5
2C
102
{ACAD_REACTORS
330
2A
102
}
102
{ACAD_XDICTIONARY
360
2DC
102
}
330
2A
100
AcDbVisualStyle
  2
FlatWithEdges
 70
     1
 71
     2
 72
     1
 73
     1
 90
        2
 40
0.6
 41
30.0
 62
     5
 63
     7
 74
     1
 91
        0
 64
     7
 65
   257
 75
     1
175
     1
 42
1.0
 92
        0
 66
   257
 43
1.0
 76
     1
 77
     6
 78
     2
 67
     7
 79
     5
170
     0
171
     0
290
     0
174
     0
 93
       13
 44
0.0
173
     0
291
     1
 45
0.0
1001
ACAD
1000
AcDbSavedByObjectVersion
1070
     0
  0
VISUALSTYLE
  5
2D
102
{ACAD_REACTORS
330
2A
102
}
102
{ACAD_XDICTIONARY
360
2DE
102
}
330
2A
100
AcDbVisualStyle
  2
Gouraud
 70
     2
 71
     2
 72
     2
 73
     1
 90
        2
 40
0.6
 41
30.0
 62
     5
 63
     7
 74
     0
 91
        0
 64
     7
 65
   257
 75
     1
175
     1
 42
1.0
 92
        0
 66
     7
 43
1.0
 76
     1
 77
     6
 78
     2
 67
     7
 79
     5
170
     0
171
     0
290
     0
174
     0
 93
       13
 44
0.0
173
     0
291
     1
 45
0.0
1001
ACAD
1000
AcDbSavedByObjectVersion
1070
     0
  0
VISUALSTYLE
  5
2E
102
{ACAD_REACTORS
330
2A
102
}
102
{ACAD_XDICTIONARY
360
2E0
102
}
330
2A
100
AcDbVisualStyle
  2
GouraudWithEdges
 70
     3
 71
     2
 72
     2
 73
     1
 90
        2
 40
0.6
 41
30.0
 62
     5
 63
     7
 74
     1
 91
        0
 64
     7
 65
   257
 75
     1
175
     1
 42
1.0
 92
        0
 66
   257
 43
1.0
 76
     1
 77
     6
 78
     2
 67
     7
 79
     5
170
     0
171
     0
290
     0
174
     0
 93
       13
 44
0.0
173
     0
291
     1
 45
0.0
1001
ACAD
1000
AcDbSavedByObjectVersion
1070
     0
  0
VISUALSTYLE
  5
31
102
{ACAD_REACTORS
330
2A
102
}
102
{ACAD_XDICTIONARY
360
2E6
102
}
330
2A
100
AcDbVisualStyle
  2
Hidden
 70
     6
 71
     1
 72
     2
 73
     2
 90
        0
 40
0.6
 41
30.0
 62
     5
 63
     7
 74
     2
 91
        2
 64
     7
 65
   257
 75
     2
175
     1
 42
40.0
 92
        0
 66
   257
 43
1.0
 76
     1
 77
     6
 78
     2
 67
     7
 79
     3
170
     0
171
     0
290
     0
174
     0
 93
        1
 44
0.0
173
     0
291
     0
 45
0.0
1001
ACAD
1000
AcDbSavedByObjectVersion
1070
     0
  0
VISUALSTYLE
  5
3B
102
{ACAD_REACTORS
330
2A
102
}
102
{ACAD_XDICTIONARY
360
2FA
102
}
330
2A
100
AcDbVisualStyle
  2
JitterOff
 70
    20
 71
     2
 72
     2
 73
     0
 90
        0
 40
0.6
 41
30.0
 62
     5
 63
     7
 74
     1
 91
        4
 64
     7
 65
   257
 75
     1
175
     1
 42
1.0
 92
       10
 66
     7
 43
1.0
 76
     1
 77
     6
 78
     2
 67
     7
 79
     5
170
     0
171
     0
290
     0
174
     0
 93
        1
 44
0.0
173
     0
291
     1
 45
0.0
1001
ACAD
1000
AcDbSavedByObjectVersion
1070
     0
  0
VISUALSTYLE
  5
38
102
{ACAD_REACTORS
330
2A
102
}
102
{ACAD_XDICTIONARY
360
2F4
102
}
330
2A
100
AcDbVisualStyle
  2
Linepattern
 70
    14
 71
     2
 72
     2
 73
     0
 90
        0
 40
0.6
 41
30.0
 62
     5
 63
     7
 74
     1
 91
        4
 64
     7
 65
   257
 75
     7
175
     7
 42
1.0
 92
        8
 66
     7
 43
1.0
 76
     1
 77
     6
 78
     2
 67
     7
 79
     5
170
     0
171
     0
290
     0
174
     0
 93
        1
 44
0.0
173
     0
291
     1
 45
0.0
1001
ACAD
1000
AcDbSavedByObjectVersion
1070
     0
  0
VISUALSTYLE
  5
3C
102
{ACAD_REACTORS
330
2A
102
}
102
{ACAD_XDICTIONARY
360
2FC
102
}
330
2A
100
AcDbVisualStyle
  2
OverhangOff
 70
    21
 71
     2
 72
     2
 73
     0
 90
        0
 40
0.6
 41
30.0
 62
     5
 63
     7
 74
     1
 91
        4
 64
     7
 65
   257
 75
     1
175
     1
 42
1.0
 92
        9
 66
     7
 43
1.0
 76
     1
 77
     6
 78
     2
 67
     7
 79
     5
170
     0
171
     0
290
     0
174
     0
 93
        1
 44
0.0
173
     0
291
     1
 45
0.0
1001
ACAD
1000
AcDbSavedByObjectVersion
1070
     0
  0
VISUALSTYLE
  5
33
102
{ACAD_REACTORS
330
2A
102
}
102
{ACAD_XDICTIONARY
360
2EA
102
}
330
2A
100
AcDbVisualStyle
  2
Realistic
 70
     8
 71
     2
 72
     3
 73
     0
 90
        2
 40
0.6
 41
30.0
 62
     5
 63
     7
 74
     0
 91
        0
 64
     7
 65
   257
 75
     1
175
     1
 42
1.0
 92
        8
 66
   257
 43
1.0
 76
     1
 77
     6
 78
     2
 67
     7
 79
     3
170
     0
171
     0
290
     0
174
     0
 93
       13
 44
0.0
173
     0
291
     0
 45
0.0
1001
ACAD
1000
AcDbSavedByObjectVersion
1070
     0
  0
VISUALSTYLE
  5
42
102
{ACAD_REACTORS
330
2A
102
}
102
{ACAD_XDICTIONARY
360
308
102
}
330
2A
100
AcDbVisualStyle
  2
Shaded
 70
    27
 71
     2
 72
     2
 73
     1
 90
        2
 40
0.6
 41
30.0
 62
     5
 63
     7
 74
     0
 91
        4
 64
     7
 65
   257
 75
     1
175
     1
 42
1.0
 92
        8
 66
   257
 43
1.0
 76
     1
 77
     6
 78
     2
 67
     8
 79
     3
170
     0
171
     0
290
     0
174
     0
 93
        5
 44
0.0
173
     0
291
     0
 45
0.0
1001
ACAD
1000
AcDbSavedByObjectVersion
1070
     0
  0
VISUALSTYLE
  5
41
102
{ACAD_REACTORS
330
2A
102
}
102
{ACAD_XDICTIONARY
360
306
102
}
330
2A
100
AcDbVisualStyle
  2
Shaded with edges
 70
    26
 71
     2
 72
     2
 73
     1
 90
        2
 40
0.6
 41
30.0
 62
     5
 63
     7
 74
     1
 91
       10
 64
     7
 65
   257
 75
     2
175
     1
 42
1.0
 92
        8
 66
   257
 43
1.0
 76
     1
 77
     6
 78
     2
 67
     7
 79
     3
170
     0
171
     0
290
     0
174
     0
 93
        5
 44
0.0
173
     0
291
     0
 45
0.0
1001
ACAD
1000
AcDbSavedByObjectVersion
1070
     0
  0
VISUALSTYLE
  5
3E
102
{ACAD_REACTORS
330
2A
102
}
102
{ACAD_XDICTIONARY
360
300
102
}
330
2A
100
AcDbVisualStyle
  2
Shades of Gray
 70
    23
 71
     2
 72
     2
 73
     3
 90
        0
 40
0.6
 41
30.0
 62
     5
 63
     7
 74
     2
 91
        2
 64
     7
 65
     7
 75
     1
175
     1
 42
40.0
 92
        8
 66
     7
 43
1.0
 76
     1
 77
     6
 78
     2
 67
     7
 79
     3
170
     0
171
     0
290
     0
174
     0
 93
        1
 44
0.0
173
     0
291
     0
 45
0.0
1001
ACAD
1000
AcDbSavedByObjectVersion
1070
     0
  0
VISUALSTYLE
  5
3F
102
{ACAD_REACTORS
330
2A
102
}
102
{ACAD_XDICTIONARY
360
302
102
}
330
2A
100
AcDbVisualStyle
  2
Sketchy
 70
    24
 71
     1
 72
     2
 73
     2
 90
        0
 40
0.6
 41
30.0
 62
     5
 63
     7
 74
     2
 91
        2
 64
     7
 65
     7
 75
     1
175
     1
 42
40.0
 92
       11
 66
     7
 43
1.0
 76
     1
 77
     6
 78
     2
 67
     7
 79
     6
170
     0
171
     0
290
     0
174
     0
 93
        1
 44
0.0
173
     0
291
     0
 45
0.0
1001
ACAD
1000
AcDbSavedByObjectVersion
1070
     0
  0
VISUALSTYLE
  5
37
102
{ACAD_REACTORS
330
2A
102
}
102
{ACAD_XDICTIONARY
360
2F2
102
}
330
2A
100
AcDbVisualStyle
  2
Thicken
 70
    13
 71
     2
 72
     2
 73
     0
 90
        0
 40
0.6
 41
30.0
 62
     5
 63
     7
 74
     1
 91
        4
 64
     7
 65
   257
 75
     1
175
     1
 42
1.0
 92
       12
 66
     7
 43
1.0
 76
     1
 77
     6
 78
     2
 67
     7
 79
     5
170
     0
171
     0
290
     0
174
     0
 93
        1
 44
0.0
173
     0
291
     1
 45
0.0
1001
ACAD
1000
AcDbSavedByObjectVersion
1070
     0
  0
VISUALSTYLE
  5
30
102
{ACAD_REACTORS
330
2A
102
}
102
{ACAD_XDICTIONARY
360
2E4
102
}
330
2A
100
AcDbVisualStyle
  2
Wireframe
 70
     5
 71
     0
 72
     2
 73
     0
 90
        0
 40
0.6
 41
30.0
 62
     5
 63
     7
 74
     1
 91
        4
 64
     7
 65
   257
 75
     1
175
     1
 42
1.0
 92
        0
 66
   257
 43
1.0
 76
     1
 77
     6
 78
     2
 67
     7
 79
     3
170
     0
171
     0
290
     0
174
     0
 93
        1
 44
0.0
173
     0
291
     0
 45
0.0
1001
ACAD
1000
AcDbSavedByObjectVersion
1070
     0
  0
VISUALSTYLE
  5
40
102
{ACAD_REACTORS
330
2A
102
}
102
{ACAD_XDICTIONARY
360
304
102
}
330
2A
100
AcDbVisualStyle
  2
X-Ray
 70
    25
 71
     2
 72
     2
 73
     1
 90
        1
 40
0.5
 41
30.0
 62
     5
 63
     7
 74
     1
 91
        0
 64
     7
 65
   257
 75
     1
175
     1
 42
1.0
 92
        8
 66
     7
 43
1.0
 76
     1
 77
     6
 78
     2
 67
     7
 79
     3
170
     0
171
     0
290
     0
174
     0
 93
       13
 44
0.0
173
     0
291
     0
 45
0.0
1001
ACAD
1000
AcDbSavedByObjectVersion
1070
     0
  0
DICTIONARYVAR
  5
2D8
102
{ACAD_REACTORS
330
2D1
102
}
330
2D1
100
DictionaryVariables
280
     0
  1
1:1
  0
DICTIONARYVAR
  5
2D6
102
{ACAD_REACTORS
330
2D1
102
}
330
2D1
100
DictionaryVariables
280
     0
  1
2
  0
DICTIONARYVAR
  5
2D7
102
{ACAD_REACTORS
330
2D1
102
}
330
2D1
100
DictionaryVariables
280
     0
  1
1
  0
DICTIONARYVAR
  5
2D9
102
{ACAD_REACTORS
330
2D1
102
}
330
2D1
100
DictionaryVariables
280
     0
  1
1
  0
DICTIONARY
  5
30C
330
45
100
AcDbDictionary
280
     1
281
     1
  3
ACAD_XREC_ROUNDTRIP
360
30D
  0
DICTIONARY
  5
30A
330
44
100
AcDbDictionary
280
     1
281
     1
  3
ACAD_XREC_ROUNDTRIP
360
30B
  0
DICTIONARY
  5
30E
330
46
100
AcDbDictionary
280
     1
281
     1
  3
ACAD_XREC_ROUNDTRIP
360
30F
  0
DICTIONARY
  5
2E2
330
2F
100
AcDbDictionary
280
     1
281
     1
  3
ACAD_XREC_ROUNDTRIP
360
2E3
  0
DICTIONARY
  5
2E8
330
32
100
AcDbDictionary
280
     1
281
     1
  3
ACAD_XREC_ROUNDTRIP
360
2E9
  0
DICTIONARY
  5
2F0
330
36
100
AcDbDictionary
280
     1
281
     1
  3
ACAD_XREC_ROUNDTRIP
360
2F1
  0
DICTIONARY
  5
2F8
330
3A
100
AcDbDictionary
280
     1
281
     1
  3
ACAD_XREC_ROUNDTRIP
360
2F9
  0
DICTIONARY
  5
2EC
330
34
100
AcDbDictionary
280
     1
281
     1
  3
ACAD_XREC_ROUNDTRIP
360
2ED
  0
DICTIONARY
  5
2EE
330
35
100
AcDbDictionary
280
     1
281
     1
  3
ACAD_XREC_ROUNDTRIP
360
2EF
  0
DICTIONARY
  5
2FE
330
3D
100
AcDbDictionary
280
     1
281
     1
  3
ACAD_XREC_ROUNDTRIP
360
2FF
  0
DICTIONARY
  5
2F6
330
39
100
AcDbDictionary
280
     1
281
     1
  3
ACAD_XREC_ROUNDTRIP
360
2F7
  0
DICTIONARY
  5
2DA
330
2B
100
AcDbDictionary
280
     1
281
     1
  3
ACAD_XREC_ROUNDTRIP
360
2DB
  0
DICTIONARY
  5
2DC
330
2C
100
AcDbDictionary
280
     1
281
     1
  3
ACAD_XREC_ROUNDTRIP
360
2DD
  0
DICTIONARY
  5
2DE
330
2D
100
AcDbDictionary
280
     1
281
     1
  3
ACAD_XREC_ROUNDTRIP
360
2DF
  0
DICTIONARY
  5
2E0
330
2E
100
AcDbDictionary
280
     1
281
     1
  3
ACAD_XREC_ROUNDTRIP
360
2E1
  0
DICTIONARY
  5
2E6
330
31
100
AcDbDictionary
280
     1
281
     1
  3
ACAD_XREC_ROUNDTRIP
360
2E7
  0
DICTIONARY
  5
2FA
330
3B
100
AcDbDictionary
280
     1
281
     1
  3
ACAD_XREC_ROUNDTRIP
360
2FB
  0
DICTIONARY
  5
2F4
330
38
100
AcDbDictionary
280
     1
281
     1
  3
ACAD_XREC_ROUNDTRIP
360
2F5
  0
DICTIONARY
  5
2FC
330
3C
100
AcDbDictionary
280
     1
281
     1
  3
ACAD_XREC_ROUNDTRIP
360
2FD
  0
DICTIONARY
  5
2EA
330
33
100
AcDbDictionary
280
     1
281
     1
  3
ACAD_XREC_ROUNDTRIP
360
2EB
  0
DICTIONARY
  5
308
330
42
100
AcDbDictionary
280
     1
281
     1
  3
ACAD_XREC_ROUNDTRIP
360
309
  0
DICTIONARY
  5
306
330
41
100
AcDbDictionary
280
     1
281
     1
  3
ACAD_XREC_ROUNDTRIP
360
307
  0
DICTIONARY
  5
300
330
3E
100
AcDbDictionary
280
     1
281
     1
  3
ACAD_XREC_ROUNDTRIP
360
301
  0
DICTIONARY
  5
302
330
3F
100
AcDbDictionary
280
     1
281
     1
  3
ACAD_XREC_ROUNDTRIP
360
303
  0
DICTIONARY
  5
2F2
330
37
100
AcDbDictionary
280
     1
281
     1
  3
ACAD_XREC_ROUNDTRIP
360
2F3
  0
DICTIONARY
  5
2E4
330
30
100
AcDbDictionary
280
     1
281
     1
  3
ACAD_XREC_ROUNDTRIP
360
2E5
  0
DICTIONARY
  5
304
330
40
100
AcDbDictionary
280
     1
281
     1
  3
ACAD_XREC_ROUNDTRIP
360
305
  0
XRECORD
  5
30D
102
{ACAD_REACTORS
330
30C
102
}
330
30C
100
AcDbXrecord
280
     1
102
MATERIAL
148
0.0
149
0.0
149
0.0
 93
        0
 94
      127
282
     0
 72
     1
 77
     1
171
     1
175
     1
179
     1
273
     0
  0
XRECORD
  5
30B
102
{ACAD_REACTORS
330
30A
102
}
330
30A
100
AcDbXrecord
280
     1
102
MATERIAL
148
0.0
149
0.0
149
0.0
 93
        0
 94
      127
282
     0
 72
     1
 77
     1
171
     1
175
     1
179
     1
273
     0
  0
XRECORD
  5
30F
102
{ACAD_REACTORS
330
30E
102
}
330
30E
100
AcDbXrecord
280
     1
102
MATERIAL
148
0.0
149
0.0
149
0.0
 93
        0
 94
      127
282
     0
 72
     1
 77
     1
171
     1
175
     1
179
     1
273
     0
  0
XRECORD
  5
2E3
102
{ACAD_REACTORS
330
2E2
102
}
330
2E2
100
AcDbXrecord
280
     1
102
RTVSPropertyOp0
 70
     1
102
RTVSPropertyOp1
 70
     1
102
RTVSPropertyOp2
 70
     1
102
RTVSPropertyOp3
 70
     1
102
RTVSPropertyOp4
 70
     1
102
RTVSPropertyOp5
 70
     1
102
RTVSPropertyOp6
 70
     1
102
RTVSPropertyOp7
 70
     1
102
RTVSPropertyOp8
 70
     1
102
RTVSPropertyOp9
 70
     1
102
RTVSPropertyOp10
 70
     1
102
RTVSPropertyOp11
 70
     1
102
RTVSPropertyOp12
 70
     1
102
RTVSPropertyOp13
 70
     1
102
RTVSPropertyOp14
 70
     1
102
RTVSPropertyOp15
 70
     1
102
RTVSPropertyOp16
 70
     1
102
RTVSPropertyOp17
 70
     1
102
RTVSPropertyOp18
 70
     1
102
RTVSPropertyOp19
 70
     1
102
RTVSPropertyOp20
 70
     1
102
RTVSPropertyOp21
 70
     1
102
RTVSPropertyOp22
 70
     1
102
RTVSPropertyOp23
 70
     1
102
RTVSPropertyOp24
 70
     1
102
RTVSPropertyOp25
 70
     1
102
RTVSPropertyOp26
 70
     1
102
RTVSPropertyOp27
 70
     1
102
RTVSPropertyOp28
 70
     1
102
RTVSPropertyOp29
 70
     1
102
RTVSPropertyOp30
 70
     1
102
RTVSPropertyOp31
 70
     1
102
RTVSPropertyOp32
 70
     1
102
RTVSPropertyOp33
 70
     1
102
RTVSPropertyOp34
 70
     1
102
RTVSPropertyOp35
 70
     1
102
RTVSPropertyOp36
 70
     1
102
RTVSPropertyOp37
 70
     1
102
RTVSPropertyOp38
 70
     1
102
RTVSPropertyOp39
 70
     1
102
RTVSPropertyOp40
 70
     1
102
RTVSPropertyOp41
 70
     1
102
RTVSPropertyOp42
 70
     1
102
RTVSPropertyOp43
 70
     1
102
RTVSPropertyOp44
 70
     1
102
RTVSPropertyOp45
 70
     1
102
RTVSPropertyOp46
 70
     1
102
RTVSPropertyOp47
 70
     1
102
RTVSPropertyOp48
 70
     1
102
RTVSPropertyOp49
 70
     1
102
RTVSPropertyOp50
 70
     1
102
RTVSPropertyOp51
 70
     0
102
RTVSPropertyOp52
 70
     0
102
RTVSPropertyOp53
 70
     1
102
RTVSPropertyOp54
 70
     1
102
RTVSPropertyOp55
 70
     1
102
RTVSPropertyOp56
 70
     1
102
RTVSPropertyOp57
 70
     1
102
RTVSPost2010Prop28
280
     1
102
RTVSPost2010PropOp28
 70
     1
102
RTVSPost2010Prop29
280
     1
102
RTVSPost2010PropOp29
 70
     1
102
RTVSPost2010Prop30
280
     0
102
RTVSPost2010PropOp30
 70
     1
102
RTVSPost2010Prop31
280
     0
102
RTVSPost2010PropOp31
 70
     1
102
RTVSPost2010Prop32
280
     0
102
RTVSPost2010PropOp32
 70
     1
102
RTVSPost2010Prop33
280
     0
102
RTVSPost2010PropOp33
 70
     1
102
RTVSPost2010Prop34
280
     0
102
RTVSPost2010PropOp34
 70
     1
102
RTVSPost2010Prop35
280
     0
102
RTVSPost2010PropOp35
 70
     1
102
RTVSPost2010Prop36
280
     0
102
RTVSPost2010PropOp36
 70
     1
102
RTVSPost2010Prop37
 90
       50
102
RTVSPost2010PropOp37
 70
     1
102
RTVSPost2010Prop38
140
0.0
102
RTVSPost2010PropOp38
 70
     1
102
RTVSPost2010Prop39
140
1.0
102
RTVSPost2010PropOp39
 70
     1
102
RTVSPost2010Prop40
 90
        0
102
RTVSPost2010PropOp40
 70
     1
102
RTVSPost2010Prop41ColorIndex
 90
       18
102
RTVSPost2010Prop41ColorRGB
 90
        0
102
RTVSPost2010PropOp41
 70
     1
102
RTVSPost2010Prop42
 90
       50
102
RTVSPost2010PropOp42
 70
     1
102
RTVSPost2010Prop43
 90
        3
102
RTVSPost2010PropOp43
 70
     1
102
RTVSPost2010Prop44ColorIndex
 90
        5
102
RTVSPost2010Prop44ColorRGB
 90
      255
102
RTVSPost2010PropOp44
 70
     1
102
RTVSPost2010Prop45
280
     0
102
RTVSPost2010PropOp45
 70
     1
102
RTVSPost2010Prop46
 90
       50
102
RTVSPost2010PropOp46
 70
     1
102
RTVSPost2010Prop47
 90
       50
102
RTVSPost2010PropOp47
 70
     1
102
RTVSPost2010Prop48
 90
       50
102
RTVSPost2010PropOp48
 70
     1
102
RTVSPost2010Prop49
280
     0
102
RTVSPost2010PropOp49
 70
     1
102
RTVSPost2010Prop50
 90
       50
102
RTVSPost2010PropOp50
 70
     1
102
RTVSPost2010Prop51ColorIndex
 90
      256
102
RTVSPost2010Prop51ColorRGB
 90
-16777216
102
RTVSPost2010PropOp51
 70
     0
102
RTVSPost2010Prop52
140
1.0
102
RTVSPost2010PropOp52
 70
     0
102
RTVSPost2010Prop53
 90
        2
102
RTVSPost2010PropOp53
 70
     1
102
RTVSPost2010Prop54
  1
strokes_ogs.tif
102
RTVSPost2010PropOp54
 70
     1
102
RTVSPost2010Prop55
280
     0
102
RTVSPost2010PropOp55
 70
     1
102
RTVSPost2010Prop56
140
1.0
102
RTVSPost2010PropOp56
 70
     1
102
RTVSPost2010Prop57
140
1.0
102
RTVSPost2010PropOp57
 70
     1
  0
XRECORD
  5
2E9
102
{ACAD_REACTORS
330
2E8
102
}
330
2E8
100
AcDbXrecord
280
     1
102
RTVSPropertyOp0
 70
     1
102
RTVSPropertyOp1
 70
     1
102
RTVSPropertyOp2
 70
     1
102
RTVSPropertyOp3
 70
     1
102
RTVSPropertyOp4
 70
     1
102
RTVSPropertyOp5
 70
     1
102
RTVSPropertyOp6
 70
     1
102
RTVSPropertyOp7
 70
     1
102
RTVSPropertyOp8
 70
     1
102
RTVSPropertyOp9
 70
     1
102
RTVSPropertyOp10
 70
     1
102
RTVSPropertyOp11
 70
     1
102
RTVSPropertyOp12
 70
     1
102
RTVSPropertyOp13
 70
     1
102
RTVSPropertyOp14
 70
     1
102
RTVSPropertyOp15
 70
     1
102
RTVSPropertyOp16
 70
     1
102
RTVSPropertyOp17
 70
     1
102
RTVSPropertyOp18
 70
     1
102
RTVSPropertyOp19
 70
     1
102
RTVSPropertyOp20
 70
     1
102
RTVSPropertyOp21
 70
     1
102
RTVSPropertyOp22
 70
     1
102
RTVSPropertyOp23
 70
     1
102
RTVSPropertyOp24
 70
     1
102
RTVSPropertyOp25
 70
     1
102
RTVSPropertyOp26
 70
     1
102
RTVSPropertyOp27
 70
     1
102
RTVSPropertyOp28
 70
     1
102
RTVSPropertyOp29
 70
     1
102
RTVSPropertyOp30
 70
     1
102
RTVSPropertyOp31
 70
     1
102
RTVSPropertyOp32
 70
     1
102
RTVSPropertyOp33
 70
     1
102
RTVSPropertyOp34
 70
     1
102
RTVSPropertyOp35
 70
     1
102
RTVSPropertyOp36
 70
     1
102
RTVSPropertyOp37
 70
     1
102
RTVSPropertyOp38
 70
     1
102
RTVSPropertyOp39
 70
     1
102
RTVSPropertyOp40
 70
     1
102
RTVSPropertyOp41
 70
     1
102
RTVSPropertyOp42
 70
     1
102
RTVSPropertyOp43
 70
     1
102
RTVSPropertyOp44
 70
     1
102
RTVSPropertyOp45
 70
     1
102
RTVSPropertyOp46
 70
     1
102
RTVSPropertyOp47
 70
     1
102
RTVSPropertyOp48
 70
     1
102
RTVSPropertyOp49
 70
     1
102
RTVSPropertyOp50
 70
     1
102
RTVSPropertyOp51
 70
     0
102
RTVSPropertyOp52
 70
     0
102
RTVSPropertyOp53
 70
     1
102
RTVSPropertyOp54
 70
     1
102
RTVSPropertyOp55
 70
     1
102
RTVSPropertyOp56
 70
     1
102
RTVSPropertyOp57
 70
     1
102
RTVSPost2010Prop28
280
     0
102
RTVSPost2010PropOp28
 70
     1
102
RTVSPost2010Prop29
280
     1
102
RTVSPost2010PropOp29
 70
     1
102
RTVSPost2010Prop30
280
     1
102
RTVSPost2010PropOp30
 70
     1
102
RTVSPost2010Prop31
280
     0
102
RTVSPost2010PropOp31
 70
     1
102
RTVSPost2010Prop32
280
     0
102
RTVSPost2010PropOp32
 70
     1
102
RTVSPost2010Prop33
280
     0
102
RTVSPost2010PropOp33
 70
     1
102
RTVSPost2010Prop34
280
     0
102
RTVSPost2010PropOp34
 70
     1
102
RTVSPost2010Prop35
280
     0
102
RTVSPost2010PropOp35
 70
     1
102
RTVSPost2010Prop36
280
     0
102
RTVSPost2010PropOp36
 70
     1
102
RTVSPost2010Prop37
 90
       50
102
RTVSPost2010PropOp37
 70
     1
102
RTVSPost2010Prop38
140
0.0
102
RTVSPost2010PropOp38
 70
     1
102
RTVSPost2010Prop39
140
1.0
102
RTVSPost2010PropOp39
 70
     1
102
RTVSPost2010Prop40
 90
        0
102
RTVSPost2010PropOp40
 70
     1
102
RTVSPost2010Prop41ColorIndex
 90
       18
102
RTVSPost2010Prop41ColorRGB
 90
        0
102
RTVSPost2010PropOp41
 70
     1
102
RTVSPost2010Prop42
 90
       50
102
RTVSPost2010PropOp42
 70
     1
102
RTVSPost2010Prop43
 90
        3
102
RTVSPost2010PropOp43
 70
     1
102
RTVSPost2010Prop44ColorIndex
 90
        5
102
RTVSPost2010Prop44ColorRGB
 90
      255
102
RTVSPost2010PropOp44
 70
     1
102
RTVSPost2010Prop45
280
     0
102
RTVSPost2010PropOp45
 70
     1
102
RTVSPost2010Prop46
 90
       50
102
RTVSPost2010PropOp46
 70
     1
102
RTVSPost2010Prop47
 90
       50
102
RTVSPost2010PropOp47
 70
     1
102
RTVSPost2010Prop48
 90
       50
102
RTVSPost2010PropOp48
 70
     1
102
RTVSPost2010Prop49
280
     0
102
RTVSPost2010PropOp49
 70
     1
102
RTVSPost2010Prop50
 90
       50
102
RTVSPost2010PropOp50
 70
     1
102
RTVSPost2010Prop51ColorIndex
 90
      256
102
RTVSPost2010Prop51ColorRGB
 90
-16777216
102
RTVSPost2010PropOp51
 70
     0
102
RTVSPost2010Prop52
140
1.0
102
RTVSPost2010PropOp52
 70
     0
102
RTVSPost2010Prop53
 90
        2
102
RTVSPost2010PropOp53
 70
     1
102
RTVSPost2010Prop54
  1
strokes_ogs.tif
102
RTVSPost2010PropOp54
 70
     1
102
RTVSPost2010Prop55
280
     0
102
RTVSPost2010PropOp55
 70
     1
102
RTVSPost2010Prop56
140
1.0
102
RTVSPost2010PropOp56
 70
     1
102
RTVSPost2010Prop57
140
1.0
102
RTVSPost2010PropOp57
 70
     1
  0
XRECORD
  5
2F1
102
{ACAD_REACTORS
330
2F0
102
}
330
2F0
100
AcDbXrecord
280
     1
102
RTVSPropertyOp0
 70
     1
102
RTVSPropertyOp1
 70
     1
102
RTVSPropertyOp2
 70
     1
102
RTVSPropertyOp3
 70
     1
102
RTVSPropertyOp4
 70
     1
102
RTVSPropertyOp5
 70
     1
102
RTVSPropertyOp6
 70
     1
102
RTVSPropertyOp7
 70
     1
102
RTVSPropertyOp8
 70
     1
102
RTVSPropertyOp9
 70
     1
102
RTVSPropertyOp10
 70
     1
102
RTVSPropertyOp11
 70
     1
102
RTVSPropertyOp12
 70
     1
102
RTVSPropertyOp13
 70
     1
102
RTVSPropertyOp14
 70
     1
102
RTVSPropertyOp15
 70
     1
102
RTVSPropertyOp16
 70
     1
102
RTVSPropertyOp17
 70
     1
102
RTVSPropertyOp18
 70
     1
102
RTVSPropertyOp19
 70
     1
102
RTVSPropertyOp20
 70
     1
102
RTVSPropertyOp21
 70
     1
102
RTVSPropertyOp22
 70
     1
102
RTVSPropertyOp23
 70
     1
102
RTVSPropertyOp24
 70
     1
102
RTVSPropertyOp25
 70
     1
102
RTVSPropertyOp26
 70
     1
102
RTVSPropertyOp27
 70
     1
102
RTVSPropertyOp28
 70
     1
102
RTVSPropertyOp29
 70
     1
102
RTVSPropertyOp30
 70
     1
102
RTVSPropertyOp31
 70
     1
102
RTVSPropertyOp32
 70
     1
102
RTVSPropertyOp33
 70
     1
102
RTVSPropertyOp34
 70
     1
102
RTVSPropertyOp35
 70
     1
102
RTVSPropertyOp36
 70
     1
102
RTVSPropertyOp37
 70
     1
102
RTVSPropertyOp38
 70
     1
102
RTVSPropertyOp39
 70
     1
102
RTVSPropertyOp40
 70
     1
102
RTVSPropertyOp41
 70
     1
102
RTVSPropertyOp42
 70
     1
102
RTVSPropertyOp43
 70
     1
102
RTVSPropertyOp44
 70
     1
102
RTVSPropertyOp45
 70
     1
102
RTVSPropertyOp46
 70
     1
102
RTVSPropertyOp47
 70
     1
102
RTVSPropertyOp48
 70
     1
102
RTVSPropertyOp49
 70
     1
102
RTVSPropertyOp50
 70
     1
102
RTVSPropertyOp51
 70
     0
102
RTVSPropertyOp52
 70
     0
102
RTVSPropertyOp53
 70
     1
102
RTVSPropertyOp54
 70
     1
102
RTVSPropertyOp55
 70
     1
102
RTVSPropertyOp56
 70
     1
102
RTVSPropertyOp57
 70
     1
102
RTVSPost2010Prop28
280
     0
102
RTVSPost2010PropOp28
 70
     1
102
RTVSPost2010Prop29
280
     1
102
RTVSPost2010PropOp29
 70
     1
102
RTVSPost2010Prop30
280
     1
102
RTVSPost2010PropOp30
 70
     1
102
RTVSPost2010Prop31
280
     0
102
RTVSPost2010PropOp31
 70
     1
102
RTVSPost2010Prop32
280
     0
102
RTVSPost2010PropOp32
 70
     1
102
RTVSPost2010Prop33
280
     0
102
RTVSPost2010PropOp33
 70
     1
102
RTVSPost2010Prop34
280
     0
102
RTVSPost2010PropOp34
 70
     1
102
RTVSPost2010Prop35
280
     0
102
RTVSPost2010PropOp35
 70
     1
102
RTVSPost2010Prop36
280
     0
102
RTVSPost2010PropOp36
 70
     1
102
RTVSPost2010Prop37
 90
       50
102
RTVSPost2010PropOp37
 70
     1
102
RTVSPost2010Prop38
140
0.0
102
RTVSPost2010PropOp38
 70
     1
102
RTVSPost2010Prop39
140
1.0
102
RTVSPost2010PropOp39
 70
     1
102
RTVSPost2010Prop40
 90
        0
102
RTVSPost2010PropOp40
 70
     1
102
RTVSPost2010Prop41ColorIndex
 90
       18
102
RTVSPost2010Prop41ColorRGB
 90
        0
102
RTVSPost2010PropOp41
 70
     1
102
RTVSPost2010Prop42
 90
       50
102
RTVSPost2010PropOp42
 70
     1
102
RTVSPost2010Prop43
 90
        3
102
RTVSPost2010PropOp43
 70
     1
102
RTVSPost2010Prop44ColorIndex
 90
        5
102
RTVSPost2010Prop44ColorRGB
 90
      255
102
RTVSPost2010PropOp44
 70
     1
102
RTVSPost2010Prop45
280
     0
102
RTVSPost2010PropOp45
 70
     1
102
RTVSPost2010Prop46
 90
       50
102
RTVSPost2010PropOp46
 70
     1
102
RTVSPost2010Prop47
 90
       50
102
RTVSPost2010PropOp47
 70
     1
102
RTVSPost2010Prop48
 90
       50
102
RTVSPost2010PropOp48
 70
     1
102
RTVSPost2010Prop49
280
     0
102
RTVSPost2010PropOp49
 70
     1
102
RTVSPost2010Prop50
 90
       50
102
RTVSPost2010PropOp50
 70
     1
102
RTVSPost2010Prop51ColorIndex
 90
      256
102
RTVSPost2010Prop51ColorRGB
 90
-16777216
102
RTVSPost2010PropOp51
 70
     0
102
RTVSPost2010Prop52
140
1.0
102
RTVSPost2010PropOp52
 70
     0
102
RTVSPost2010Prop53
 90
        2
102
RTVSPost2010PropOp53
 70
     1
102
RTVSPost2010Prop54
  1
strokes_ogs.tif
102
RTVSPost2010PropOp54
 70
     1
102
RTVSPost2010Prop55
280
     0
102
RTVSPost2010PropOp55
 70
     1
102
RTVSPost2010Prop56
140
1.0
102
RTVSPost2010PropOp56
 70
     1
102
RTVSPost2010Prop57
140
1.0
102
RTVSPost2010PropOp57
 70
     1
  0
XRECORD
  5
2F9
102
{ACAD_REACTORS
330
2F8
102
}
330
2F8
100
AcDbXrecord
280
     1
102
RTVSPropertyOp0
 70
     1
102
RTVSPropertyOp1
 70
     1
102
RTVSPropertyOp2
 70
     1
102
RTVSPropertyOp3
 70
     1
102
RTVSPropertyOp4
 70
     1
102
RTVSPropertyOp5
 70
     1
102
RTVSPropertyOp6
 70
     1
102
RTVSPropertyOp7
 70
     1
102
RTVSPropertyOp8
 70
     1
102
RTVSPropertyOp9
 70
     1
102
RTVSPropertyOp10
 70
     1
102
RTVSPropertyOp11
 70
     1
102
RTVSPropertyOp12
 70
     1
102
RTVSPropertyOp13
 70
     1
102
RTVSPropertyOp14
 70
     1
102
RTVSPropertyOp15
 70
     1
102
RTVSPropertyOp16
 70
     1
102
RTVSPropertyOp17
 70
     1
102
RTVSPropertyOp18
 70
     1
102
RTVSPropertyOp19
 70
     1
102
RTVSPropertyOp20
 70
     1
102
RTVSPropertyOp21
 70
     1
102
RTVSPropertyOp22
 70
     1
102
RTVSPropertyOp23
 70
     1
102
RTVSPropertyOp24
 70
     1
102
RTVSPropertyOp25
 70
     1
102
RTVSPropertyOp26
 70
     1
102
RTVSPropertyOp27
 70
     1
102
RTVSPropertyOp28
 70
     1
102
RTVSPropertyOp29
 70
     1
102
RTVSPropertyOp30
 70
     1
102
RTVSPropertyOp31
 70
     1
102
RTVSPropertyOp32
 70
     1
102
RTVSPropertyOp33
 70
     1
102
RTVSPropertyOp34
 70
     1
102
RTVSPropertyOp35
 70
     1
102
RTVSPropertyOp36
 70
     1
102
RTVSPropertyOp37
 70
     1
102
RTVSPropertyOp38
 70
     1
102
RTVSPropertyOp39
 70
     1
102
RTVSPropertyOp40
 70
     1
102
RTVSPropertyOp41
 70
     1
102
RTVSPropertyOp42
 70
     1
102
RTVSPropertyOp43
 70
     1
102
RTVSPropertyOp44
 70
     1
102
RTVSPropertyOp45
 70
     1
102
RTVSPropertyOp46
 70
     1
102
RTVSPropertyOp47
 70
     1
102
RTVSPropertyOp48
 70
     1
102
RTVSPropertyOp49
 70
     1
102
RTVSPropertyOp50
 70
     1
102
RTVSPropertyOp51
 70
     0
102
RTVSPropertyOp52
 70
     0
102
RTVSPropertyOp53
 70
     1
102
RTVSPropertyOp54
 70
     1
102
RTVSPropertyOp55
 70
     1
102
RTVSPropertyOp56
 70
     1
102
RTVSPropertyOp57
 70
     1
102
RTVSPost2010Prop28
280
     0
102
RTVSPost2010PropOp28
 70
     1
102
RTVSPost2010Prop29
280
     1
102
RTVSPost2010PropOp29
 70
     1
102
RTVSPost2010Prop30
280
     1
102
RTVSPost2010PropOp30
 70
     1
102
RTVSPost2010Prop31
280
     0
102
RTVSPost2010PropOp31
 70
     1
102
RTVSPost2010Prop32
280
     0
102
RTVSPost2010PropOp32
 70
     1
102
RTVSPost2010Prop33
280
     0
102
RTVSPost2010PropOp33
 70
     1
102
RTVSPost2010Prop34
280
     0
102
RTVSPost2010PropOp34
 70
     1
102
RTVSPost2010Prop35
280
     0
102
RTVSPost2010PropOp35
 70
     1
102
RTVSPost2010Prop36
280
     0
102
RTVSPost2010PropOp36
 70
     1
102
RTVSPost2010Prop37
 90
       50
102
RTVSPost2010PropOp37
 70
     1
102
RTVSPost2010Prop38
140
0.0
102
RTVSPost2010PropOp38
 70
     1
102
RTVSPost2010Prop39
140
1.0
102
RTVSPost2010PropOp39
 70
     1
102
RTVSPost2010Prop40
 90
        0
102
RTVSPost2010PropOp40
 70
     1
102
RTVSPost2010Prop41ColorIndex
 90
       18
102
RTVSPost2010Prop41ColorRGB
 90
        0
102
RTVSPost2010PropOp41
 70
     1
102
RTVSPost2010Prop42
 90
       50
102
RTVSPost2010PropOp42
 70
     1
102
RTVSPost2010Prop43
 90
        3
102
RTVSPost2010PropOp43
 70
     1
102
RTVSPost2010Prop44ColorIndex
 90
        5
102
RTVSPost2010Prop44ColorRGB
 90
      255
102
RTVSPost2010PropOp44
 70
     1
102
RTVSPost2010Prop45
280
     0
102
RTVSPost2010PropOp45
 70
     1
102
RTVSPost2010Prop46
 90
       50
102
RTVSPost2010PropOp46
 70
     1
102
RTVSPost2010Prop47
 90
       50
102
RTVSPost2010PropOp47
 70
     1
102
RTVSPost2010Prop48
 90
       50
102
RTVSPost2010PropOp48
 70
     1
102
RTVSPost2010Prop49
280
     0
102
RTVSPost2010PropOp49
 70
     1
102
RTVSPost2010Prop50
 90
       50
102
RTVSPost2010PropOp50
 70
     1
102
RTVSPost2010Prop51ColorIndex
 90
      256
102
RTVSPost2010Prop51ColorRGB
 90
-16777216
102
RTVSPost2010PropOp51
 70
     0
102
RTVSPost2010Prop52
140
1.0
102
RTVSPost2010PropOp52
 70
     0
102
RTVSPost2010Prop53
 90
        2
102
RTVSPost2010PropOp53
 70
     1
102
RTVSPost2010Prop54
  1
strokes_ogs.tif
102
RTVSPost2010PropOp54
 70
     1
102
RTVSPost2010Prop55
280
     0
102
RTVSPost2010PropOp55
 70
     1
102
RTVSPost2010Prop56
140
1.0
102
RTVSPost2010PropOp56
 70
     1
102
RTVSPost2010Prop57
140
1.0
102
RTVSPost2010PropOp57
 70
     1
  0
XRECORD
  5
2ED
102
{ACAD_REACTORS
330
2EC
102
}
330
2EC
100
AcDbXrecord
280
     1
102
RTVSPropertyOp0
 70
     1
102
RTVSPropertyOp1
 70
     1
102
RTVSPropertyOp2
 70
     1
102
RTVSPropertyOp3
 70
     1
102
RTVSPropertyOp4
 70
     1
102
RTVSPropertyOp5
 70
     1
102
RTVSPropertyOp6
 70
     1
102
RTVSPropertyOp7
 70
     1
102
RTVSPropertyOp8
 70
     1
102
RTVSPropertyOp9
 70
     1
102
RTVSPropertyOp10
 70
     1
102
RTVSPropertyOp11
 70
     1
102
RTVSPropertyOp12
 70
     1
102
RTVSPropertyOp13
 70
     1
102
RTVSPropertyOp14
 70
     1
102
RTVSPropertyOp15
 70
     1
102
RTVSPropertyOp16
 70
     1
102
RTVSPropertyOp17
 70
     1
102
RTVSPropertyOp18
 70
     1
102
RTVSPropertyOp19
 70
     1
102
RTVSPropertyOp20
 70
     1
102
RTVSPropertyOp21
 70
     1
102
RTVSPropertyOp22
 70
     1
102
RTVSPropertyOp23
 70
     1
102
RTVSPropertyOp24
 70
     1
102
RTVSPropertyOp25
 70
     1
102
RTVSPropertyOp26
 70
     1
102
RTVSPropertyOp27
 70
     1
102
RTVSPropertyOp28
 70
     1
102
RTVSPropertyOp29
 70
     1
102
RTVSPropertyOp30
 70
     1
102
RTVSPropertyOp31
 70
     1
102
RTVSPropertyOp32
 70
     1
102
RTVSPropertyOp33
 70
     1
102
RTVSPropertyOp34
 70
     1
102
RTVSPropertyOp35
 70
     1
102
RTVSPropertyOp36
 70
     1
102
RTVSPropertyOp37
 70
     1
102
RTVSPropertyOp38
 70
     1
102
RTVSPropertyOp39
 70
     1
102
RTVSPropertyOp40
 70
     1
102
RTVSPropertyOp41
 70
     1
102
RTVSPropertyOp42
 70
     1
102
RTVSPropertyOp43
 70
     1
102
RTVSPropertyOp44
 70
     1
102
RTVSPropertyOp45
 70
     1
102
RTVSPropertyOp46
 70
     1
102
RTVSPropertyOp47
 70
     1
102
RTVSPropertyOp48
 70
     1
102
RTVSPropertyOp49
 70
     1
102
RTVSPropertyOp50
 70
     1
102
RTVSPropertyOp51
 70
     0
102
RTVSPropertyOp52
 70
     0
102
RTVSPropertyOp53
 70
     1
102
RTVSPropertyOp54
 70
     1
102
RTVSPropertyOp55
 70
     1
102
RTVSPropertyOp56
 70
     1
102
RTVSPropertyOp57
 70
     1
102
RTVSPost2010Prop28
280
     0
102
RTVSPost2010PropOp28
 70
     1
102
RTVSPost2010Prop29
280
     1
102
RTVSPost2010PropOp29
 70
     1
102
RTVSPost2010Prop30
280
     1
102
RTVSPost2010PropOp30
 70
     1
102
RTVSPost2010Prop31
280
     0
102
RTVSPost2010PropOp31
 70
     1
102
RTVSPost2010Prop32
280
     0
102
RTVSPost2010PropOp32
 70
     1
102
RTVSPost2010Prop33
280
     0
102
RTVSPost2010PropOp33
 70
     1
102
RTVSPost2010Prop34
280
     0
102
RTVSPost2010PropOp34
 70
     1
102
RTVSPost2010Prop35
280
     0
102
RTVSPost2010PropOp35
 70
     1
102
RTVSPost2010Prop36
280
     0
102
RTVSPost2010PropOp36
 70
     1
102
RTVSPost2010Prop37
 90
       50
102
RTVSPost2010PropOp37
 70
     1
102
RTVSPost2010Prop38
140
0.0
102
RTVSPost2010PropOp38
 70
     1
102
RTVSPost2010Prop39
140
1.0
102
RTVSPost2010PropOp39
 70
     1
102
RTVSPost2010Prop40
 90
        0
102
RTVSPost2010PropOp40
 70
     1
102
RTVSPost2010Prop41ColorIndex
 90
       18
102
RTVSPost2010Prop41ColorRGB
 90
        0
102
RTVSPost2010PropOp41
 70
     1
102
RTVSPost2010Prop42
 90
       50
102
RTVSPost2010PropOp42
 70
     1
102
RTVSPost2010Prop43
 90
        3
102
RTVSPost2010PropOp43
 70
     1
102
RTVSPost2010Prop44ColorIndex
 90
        5
102
RTVSPost2010Prop44ColorRGB
 90
      255
102
RTVSPost2010PropOp44
 70
     1
102
RTVSPost2010Prop45
280
     0
102
RTVSPost2010PropOp45
 70
     1
102
RTVSPost2010Prop46
 90
       50
102
RTVSPost2010PropOp46
 70
     1
102
RTVSPost2010Prop47
 90
       50
102
RTVSPost2010PropOp47
 70
     1
102
RTVSPost2010Prop48
 90
       50
102
RTVSPost2010PropOp48
 70
     1
102
RTVSPost2010Prop49
280
     0
102
RTVSPost2010PropOp49
 70
     1
102
RTVSPost2010Prop50
 90
       50
102
RTVSPost2010PropOp50
 70
     1
102
RTVSPost2010Prop51ColorIndex
 90
      256
102
RTVSPost2010Prop51ColorRGB
 90
-16777216
102
RTVSPost2010PropOp51
 70
     0
102
RTVSPost2010Prop52
140
1.0
102
RTVSPost2010PropOp52
 70
     0
102
RTVSPost2010Prop53
 90
        2
102
RTVSPost2010PropOp53
 70
     1
102
RTVSPost2010Prop54
  1
strokes_ogs.tif
102
RTVSPost2010PropOp54
 70
     1
102
RTVSPost2010Prop55
280
     0
102
RTVSPost2010PropOp55
 70
     1
102
RTVSPost2010Prop56
140
1.0
102
RTVSPost2010PropOp56
 70
     1
102
RTVSPost2010Prop57
140
1.0
102
RTVSPost2010PropOp57
 70
     1
  0
XRECORD
  5
2EF
102
{ACAD_REACTORS
330
2EE
102
}
330
2EE
100
AcDbXrecord
280
     1
102
RTVSPropertyOp0
 70
     1
102
RTVSPropertyOp1
 70
     1
102
RTVSPropertyOp2
 70
     1
102
RTVSPropertyOp3
 70
     1
102
RTVSPropertyOp4
 70
     1
102
RTVSPropertyOp5
 70
     1
102
RTVSPropertyOp6
 70
     1
102
RTVSPropertyOp7
 70
     1
102
RTVSPropertyOp8
 70
     1
102
RTVSPropertyOp9
 70
     1
102
RTVSPropertyOp10
 70
     1
102
RTVSPropertyOp11
 70
     1
102
RTVSPropertyOp12
 70
     1
102
RTVSPropertyOp13
 70
     1
102
RTVSPropertyOp14
 70
     1
102
RTVSPropertyOp15
 70
     1
102
RTVSPropertyOp16
 70
     1
102
RTVSPropertyOp17
 70
     1
102
RTVSPropertyOp18
 70
     1
102
RTVSPropertyOp19
 70
     1
102
RTVSPropertyOp20
 70
     1
102
RTVSPropertyOp21
 70
     1
102
RTVSPropertyOp22
 70
     1
102
RTVSPropertyOp23
 70
     1
102
RTVSPropertyOp24
 70
     1
102
RTVSPropertyOp25
 70
     1
102
RTVSPropertyOp26
 70
     1
102
RTVSPropertyOp27
 70
     1
102
RTVSPropertyOp28
 70
     1
102
RTVSPropertyOp29
 70
     1
102
RTVSPropertyOp30
 70
     1
102
RTVSPropertyOp31
 70
     1
102
RTVSPropertyOp32
 70
     1
102
RTVSPropertyOp33
 70
     1
102
RTVSPropertyOp34
 70
     1
102
RTVSPropertyOp35
 70
     1
102
RTVSPropertyOp36
 70
     1
102
RTVSPropertyOp37
 70
     1
102
RTVSPropertyOp38
 70
     1
102
RTVSPropertyOp39
 70
     1
102
RTVSPropertyOp40
 70
     1
102
RTVSPropertyOp41
 70
     1
102
RTVSPropertyOp42
 70
     1
102
RTVSPropertyOp43
 70
     1
102
RTVSPropertyOp44
 70
     1
102
RTVSPropertyOp45
 70
     1
102
RTVSPropertyOp46
 70
     1
102
RTVSPropertyOp47
 70
     1
102
RTVSPropertyOp48
 70
     1
102
RTVSPropertyOp49
 70
     1
102
RTVSPropertyOp50
 70
     1
102
RTVSPropertyOp51
 70
     0
102
RTVSPropertyOp52
 70
     0
102
RTVSPropertyOp53
 70
     1
102
RTVSPropertyOp54
 70
     1
102
RTVSPropertyOp55
 70
     1
102
RTVSPropertyOp56
 70
     1
102
RTVSPropertyOp57
 70
     1
102
RTVSPost2010Prop28
280
     0
102
RTVSPost2010PropOp28
 70
     1
102
RTVSPost2010Prop29
280
     1
102
RTVSPost2010PropOp29
 70
     1
102
RTVSPost2010Prop30
280
     1
102
RTVSPost2010PropOp30
 70
     1
102
RTVSPost2010Prop31
280
     0
102
RTVSPost2010PropOp31
 70
     1
102
RTVSPost2010Prop32
280
     0
102
RTVSPost2010PropOp32
 70
     1
102
RTVSPost2010Prop33
280
     0
102
RTVSPost2010PropOp33
 70
     1
102
RTVSPost2010Prop34
280
     0
102
RTVSPost2010PropOp34
 70
     1
102
RTVSPost2010Prop35
280
     0
102
RTVSPost2010PropOp35
 70
     1
102
RTVSPost2010Prop36
280
     0
102
RTVSPost2010PropOp36
 70
     1
102
RTVSPost2010Prop37
 90
       50
102
RTVSPost2010PropOp37
 70
     1
102
RTVSPost2010Prop38
140
0.0
102
RTVSPost2010PropOp38
 70
     1
102
RTVSPost2010Prop39
140
1.0
102
RTVSPost2010PropOp39
 70
     1
102
RTVSPost2010Prop40
 90
        0
102
RTVSPost2010PropOp40
 70
     1
102
RTVSPost2010Prop41ColorIndex
 90
       18
102
RTVSPost2010Prop41ColorRGB
 90
        0
102
RTVSPost2010PropOp41
 70
     1
102
RTVSPost2010Prop42
 90
       50
102
RTVSPost2010PropOp42
 70
     1
102
RTVSPost2010Prop43
 90
        3
102
RTVSPost2010PropOp43
 70
     1
102
RTVSPost2010Prop44ColorIndex
 90
        5
102
RTVSPost2010Prop44ColorRGB
 90
      255
102
RTVSPost2010PropOp44
 70
     1
102
RTVSPost2010Prop45
280
     0
102
RTVSPost2010PropOp45
 70
     1
102
RTVSPost2010Prop46
 90
       50
102
RTVSPost2010PropOp46
 70
     1
102
RTVSPost2010Prop47
 90
       50
102
RTVSPost2010PropOp47
 70
     1
102
RTVSPost2010Prop48
 90
       50
102
RTVSPost2010PropOp48
 70
     1
102
RTVSPost2010Prop49
280
     0
102
RTVSPost2010PropOp49
 70
     1
102
RTVSPost2010Prop50
 90
       50
102
RTVSPost2010PropOp50
 70
     1
102
RTVSPost2010Prop51ColorIndex
 90
      256
102
RTVSPost2010Prop51ColorRGB
 90
-16777216
102
RTVSPost2010PropOp51
 70
     0
102
RTVSPost2010Prop52
140
1.0
102
RTVSPost2010PropOp52
 70
     0
102
RTVSPost2010Prop53
 90
        2
102
RTVSPost2010PropOp53
 70
     1
102
RTVSPost2010Prop54
  1
strokes_ogs.tif
102
RTVSPost2010PropOp54
 70
     1
102
RTVSPost2010Prop55
280
     0
102
RTVSPost2010PropOp55
 70
     1
102
RTVSPost2010Prop56
140
1.0
102
RTVSPost2010PropOp56
 70
     1
102
RTVSPost2010Prop57
140
1.0
102
RTVSPost2010PropOp57
 70
     1
  0
XRECORD
  5
2FF
102
{ACAD_REACTORS
330
2FE
102
}
330
2FE
100
AcDbXrecord
280
     1
102
RTVSPropertyOp0
 70
     0
102
RTVSPropertyOp1
 70
     0
102
RTVSPropertyOp2
 70
     0
102
RTVSPropertyOp3
 70
     0
102
RTVSPropertyOp4
 70
     0
102
RTVSPropertyOp5
 70
     0
102
RTVSPropertyOp6
 70
     0
102
RTVSPropertyOp7
 70
     0
102
RTVSPropertyOp8
 70
     0
102
RTVSPropertyOp9
 70
     0
102
RTVSPropertyOp10
 70
     0
102
RTVSPropertyOp11
 70
     0
102
RTVSPropertyOp12
 70
     0
102
RTVSPropertyOp13
 70
     0
102
RTVSPropertyOp14
 70
     2
102
RTVSPropertyOp15
 70
     0
102
RTVSPropertyOp16
 70
     0
102
RTVSPropertyOp17
 70
     0
102
RTVSPropertyOp18
 70
     0
102
RTVSPropertyOp19
 70
     0
102
RTVSPropertyOp20
 70
     0
102
RTVSPropertyOp21
 70
     0
102
RTVSPropertyOp22
 70
     0
102
RTVSPropertyOp23
 70
     0
102
RTVSPropertyOp24
 70
     0
102
RTVSPropertyOp25
 70
     0
102
RTVSPropertyOp26
 70
     0
102
RTVSPropertyOp27
 70
     0
102
RTVSPropertyOp28
 70
     0
102
RTVSPropertyOp29
 70
     0
102
RTVSPropertyOp30
 70
     0
102
RTVSPropertyOp31
 70
     0
102
RTVSPropertyOp32
 70
     0
102
RTVSPropertyOp33
 70
     0
102
RTVSPropertyOp34
 70
     0
102
RTVSPropertyOp35
 70
     0
102
RTVSPropertyOp36
 70
     0
102
RTVSPropertyOp37
 70
     0
102
RTVSPropertyOp38
 70
     0
102
RTVSPropertyOp39
 70
     0
102
RTVSPropertyOp40
 70
     0
102
RTVSPropertyOp41
 70
     0
102
RTVSPropertyOp42
 70
     0
102
RTVSPropertyOp43
 70
     0
102
RTVSPropertyOp44
 70
     0
102
RTVSPropertyOp45
 70
     0
102
RTVSPropertyOp46
 70
     0
102
RTVSPropertyOp47
 70
     0
102
RTVSPropertyOp48
 70
     0
102
RTVSPropertyOp49
 70
     0
102
RTVSPropertyOp50
 70
     0
102
RTVSPropertyOp51
 70
     0
102
RTVSPropertyOp52
 70
     0
102
RTVSPropertyOp53
 70
     0
102
RTVSPropertyOp54
 70
     0
102
RTVSPropertyOp55
 70
     0
102
RTVSPropertyOp56
 70
     0
102
RTVSPropertyOp57
 70
     0
102
RTVSPost2010Prop28
280
     0
102
RTVSPost2010PropOp28
 70
     0
102
RTVSPost2010Prop29
280
     1
102
RTVSPost2010PropOp29
 70
     0
102
RTVSPost2010Prop30
280
     1
102
RTVSPost2010PropOp30
 70
     0
102
RTVSPost2010Prop31
280
     0
102
RTVSPost2010PropOp31
 70
     0
102
RTVSPost2010Prop32
280
     0
102
RTVSPost2010PropOp32
 70
     0
102
RTVSPost2010Prop33
280
     0
102
RTVSPost2010PropOp33
 70
     0
102
RTVSPost2010Prop34
280
     0
102
RTVSPost2010PropOp34
 70
     0
102
RTVSPost2010Prop35
280
     0
102
RTVSPost2010PropOp35
 70
     0
102
RTVSPost2010Prop36
280
     0
102
RTVSPost2010PropOp36
 70
     0
102
RTVSPost2010Prop37
 90
       50
102
RTVSPost2010PropOp37
 70
     0
102
RTVSPost2010Prop38
140
0.0
102
RTVSPost2010PropOp38
 70
     0
102
RTVSPost2010Prop39
140
1.0
102
RTVSPost2010PropOp39
 70
     0
102
RTVSPost2010Prop40
 90
        0
102
RTVSPost2010PropOp40
 70
     0
102
RTVSPost2010Prop41ColorIndex
 90
       18
102
RTVSPost2010Prop41ColorRGB
 90
        0
102
RTVSPost2010PropOp41
 70
     0
102
RTVSPost2010Prop42
 90
       50
102
RTVSPost2010PropOp42
 70
     0
102
RTVSPost2010Prop43
 90
        3
102
RTVSPost2010PropOp43
 70
     0
102
RTVSPost2010Prop44ColorIndex
 90
        5
102
RTVSPost2010Prop44ColorRGB
 90
      255
102
RTVSPost2010PropOp44
 70
     0
102
RTVSPost2010Prop45
280
     0
102
RTVSPost2010PropOp45
 70
     0
102
RTVSPost2010Prop46
 90
       50
102
RTVSPost2010PropOp46
 70
     0
102
RTVSPost2010Prop47
 90
       50
102
RTVSPost2010PropOp47
 70
     0
102
RTVSPost2010Prop48
 90
       50
102
RTVSPost2010PropOp48
 70
     0
102
RTVSPost2010Prop49
280
     0
102
RTVSPost2010PropOp49
 70
     0
102
RTVSPost2010Prop50
 90
       50
102
RTVSPost2010PropOp50
 70
     0
102
RTVSPost2010Prop51ColorIndex
 90
      256
102
RTVSPost2010Prop51ColorRGB
 90
-16777216
102
RTVSPost2010PropOp51
 70
     0
102
RTVSPost2010Prop52
140
1.0
102
RTVSPost2010PropOp52
 70
     0
102
RTVSPost2010Prop53
 90
        2
102
RTVSPost2010PropOp53
 70
     0
102
RTVSPost2010Prop54
  1
strokes_ogs.tif
102
RTVSPost2010PropOp54
 70
     0
102
RTVSPost2010Prop55
280
     0
102
RTVSPost2010PropOp55
 70
     0
102
RTVSPost2010Prop56
140
1.0
102
RTVSPost2010PropOp56
 70
     0
102
RTVSPost2010Prop57
140
1.0
102
RTVSPost2010PropOp57
 70
     0
  0
XRECORD
  5
2F7
102
{ACAD_REACTORS
330
2F6
102
}
330
2F6
100
AcDbXrecord
280
     1
102
RTVSPropertyOp0
 70
     1
102
RTVSPropertyOp1
 70
     1
102
RTVSPropertyOp2
 70
     1
102
RTVSPropertyOp3
 70
     1
102
RTVSPropertyOp4
 70
     1
102
RTVSPropertyOp5
 70
     1
102
RTVSPropertyOp6
 70
     1
102
RTVSPropertyOp7
 70
     1
102
RTVSPropertyOp8
 70
     1
102
RTVSPropertyOp9
 70
     1
102
RTVSPropertyOp10
 70
     1
102
RTVSPropertyOp11
 70
     1
102
RTVSPropertyOp12
 70
     1
102
RTVSPropertyOp13
 70
     1
102
RTVSPropertyOp14
 70
     1
102
RTVSPropertyOp15
 70
     1
102
RTVSPropertyOp16
 70
     1
102
RTVSPropertyOp17
 70
     1
102
RTVSPropertyOp18
 70
     1
102
RTVSPropertyOp19
 70
     1
102
RTVSPropertyOp20
 70
     1
102
RTVSPropertyOp21
 70
     1
102
RTVSPropertyOp22
 70
     1
102
RTVSPropertyOp23
 70
     1
102
RTVSPropertyOp24
 70
     1
102
RTVSPropertyOp25
 70
     1
102
RTVSPropertyOp26
 70
     1
102
RTVSPropertyOp27
 70
     1
102
RTVSPropertyOp28
 70
     1
102
RTVSPropertyOp29
 70
     1
102
RTVSPropertyOp30
 70
     1
102
RTVSPropertyOp31
 70
     1
102
RTVSPropertyOp32
 70
     1
102
RTVSPropertyOp33
 70
     1
102
RTVSPropertyOp34
 70
     1
102
RTVSPropertyOp35
 70
     1
102
RTVSPropertyOp36
 70
     1
102
RTVSPropertyOp37
 70
     1
102
RTVSPropertyOp38
 70
     1
102
RTVSPropertyOp39
 70
     1
102
RTVSPropertyOp40
 70
     1
102
RTVSPropertyOp41
 70
     1
102
RTVSPropertyOp42
 70
     1
102
RTVSPropertyOp43
 70
     1
102
RTVSPropertyOp44
 70
     1
102
RTVSPropertyOp45
 70
     1
102
RTVSPropertyOp46
 70
     1
102
RTVSPropertyOp47
 70
     1
102
RTVSPropertyOp48
 70
     1
102
RTVSPropertyOp49
 70
     1
102
RTVSPropertyOp50
 70
     1
102
RTVSPropertyOp51
 70
     0
102
RTVSPropertyOp52
 70
     0
102
RTVSPropertyOp53
 70
     1
102
RTVSPropertyOp54
 70
     1
102
RTVSPropertyOp55
 70
     1
102
RTVSPropertyOp56
 70
     1
102
RTVSPropertyOp57
 70
     1
102
RTVSPost2010Prop28
280
     0
102
RTVSPost2010PropOp28
 70
     1
102
RTVSPost2010Prop29
280
     1
102
RTVSPost2010PropOp29
 70
     1
102
RTVSPost2010Prop30
280
     1
102
RTVSPost2010PropOp30
 70
     1
102
RTVSPost2010Prop31
280
     0
102
RTVSPost2010PropOp31
 70
     1
102
RTVSPost2010Prop32
280
     0
102
RTVSPost2010PropOp32
 70
     1
102
RTVSPost2010Prop33
280
     0
102
RTVSPost2010PropOp33
 70
     1
102
RTVSPost2010Prop34
280
     0
102
RTVSPost2010PropOp34
 70
     1
102
RTVSPost2010Prop35
280
     0
102
RTVSPost2010PropOp35
 70
     1
102
RTVSPost2010Prop36
280
     0
102
RTVSPost2010PropOp36
 70
     1
102
RTVSPost2010Prop37
 90
       50
102
RTVSPost2010PropOp37
 70
     1
102
RTVSPost2010Prop38
140
0.0
102
RTVSPost2010PropOp38
 70
     1
102
RTVSPost2010Prop39
140
1.0
102
RTVSPost2010PropOp39
 70
     1
102
RTVSPost2010Prop40
 90
        0
102
RTVSPost2010PropOp40
 70
     1
102
RTVSPost2010Prop41ColorIndex
 90
       18
102
RTVSPost2010Prop41ColorRGB
 90
        0
102
RTVSPost2010PropOp41
 70
     1
102
RTVSPost2010Prop42
 90
       50
102
RTVSPost2010PropOp42
 70
     1
102
RTVSPost2010Prop43
 90
        3
102
RTVSPost2010PropOp43
 70
     1
102
RTVSPost2010Prop44ColorIndex
 90
        5
102
RTVSPost2010Prop44ColorRGB
 90
      255
102
RTVSPost2010PropOp44
 70
     1
102
RTVSPost2010Prop45
280
     0
102
RTVSPost2010PropOp45
 70
     1
102
RTVSPost2010Prop46
 90
       50
102
RTVSPost2010PropOp46
 70
     1
102
RTVSPost2010Prop47
 90
       50
102
RTVSPost2010PropOp47
 70
     1
102
RTVSPost2010Prop48
 90
       50
102
RTVSPost2010PropOp48
 70
     1
102
RTVSPost2010Prop49
280
     0
102
RTVSPost2010PropOp49
 70
     1
102
RTVSPost2010Prop50
 90
       50
102
RTVSPost2010PropOp50
 70
     1
102
RTVSPost2010Prop51ColorIndex
 90
      256
102
RTVSPost2010Prop51ColorRGB
 90
-16777216
102
RTVSPost2010PropOp51
 70
     0
102
RTVSPost2010Prop52
140
1.0
102
RTVSPost2010PropOp52
 70
     0
102
RTVSPost2010Prop53
 90
        2
102
RTVSPost2010PropOp53
 70
     1
102
RTVSPost2010Prop54
  1
strokes_ogs.tif
102
RTVSPost2010PropOp54
 70
     1
102
RTVSPost2010Prop55
280
     0
102
RTVSPost2010PropOp55
 70
     1
102
RTVSPost2010Prop56
140
1.0
102
RTVSPost2010PropOp56
 70
     1
102
RTVSPost2010Prop57
140
1.0
102
RTVSPost2010PropOp57
 70
     1
  0
XRECORD
  5
2DB
102
{ACAD_REACTORS
330
2DA
102
}
330
2DA
100
AcDbXrecord
280
     1
102
RTVSPropertyOp0
 70
     1
102
RTVSPropertyOp1
 70
     1
102
RTVSPropertyOp2
 70
     1
102
RTVSPropertyOp3
 70
     1
102
RTVSPropertyOp4
 70
     1
102
RTVSPropertyOp5
 70
     1
102
RTVSPropertyOp6
 70
     1
102
RTVSPropertyOp7
 70
     1
102
RTVSPropertyOp8
 70
     1
102
RTVSPropertyOp9
 70
     1
102
RTVSPropertyOp10
 70
     1
102
RTVSPropertyOp11
 70
     1
102
RTVSPropertyOp12
 70
     1
102
RTVSPropertyOp13
 70
     1
102
RTVSPropertyOp14
 70
     1
102
RTVSPropertyOp15
 70
     1
102
RTVSPropertyOp16
 70
     1
102
RTVSPropertyOp17
 70
     1
102
RTVSPropertyOp18
 70
     1
102
RTVSPropertyOp19
 70
     1
102
RTVSPropertyOp20
 70
     1
102
RTVSPropertyOp21
 70
     1
102
RTVSPropertyOp22
 70
     1
102
RTVSPropertyOp23
 70
     1
102
RTVSPropertyOp24
 70
     1
102
RTVSPropertyOp25
 70
     1
102
RTVSPropertyOp26
 70
     1
102
RTVSPropertyOp27
 70
     1
102
RTVSPropertyOp28
 70
     1
102
RTVSPropertyOp29
 70
     1
102
RTVSPropertyOp30
 70
     1
102
RTVSPropertyOp31
 70
     1
102
RTVSPropertyOp32
 70
     1
102
RTVSPropertyOp33
 70
     1
102
RTVSPropertyOp34
 70
     1
102
RTVSPropertyOp35
 70
     1
102
RTVSPropertyOp36
 70
     1
102
RTVSPropertyOp37
 70
     1
102
RTVSPropertyOp38
 70
     1
102
RTVSPropertyOp39
 70
     1
102
RTVSPropertyOp40
 70
     1
102
RTVSPropertyOp41
 70
     1
102
RTVSPropertyOp42
 70
     1
102
RTVSPropertyOp43
 70
     1
102
RTVSPropertyOp44
 70
     1
102
RTVSPropertyOp45
 70
     1
102
RTVSPropertyOp46
 70
     1
102
RTVSPropertyOp47
 70
     1
102
RTVSPropertyOp48
 70
     1
102
RTVSPropertyOp49
 70
     1
102
RTVSPropertyOp50
 70
     1
102
RTVSPropertyOp51
 70
     0
102
RTVSPropertyOp52
 70
     0
102
RTVSPropertyOp53
 70
     1
102
RTVSPropertyOp54
 70
     1
102
RTVSPropertyOp55
 70
     1
102
RTVSPropertyOp56
 70
     1
102
RTVSPropertyOp57
 70
     1
102
RTVSPost2010Prop28
280
     0
102
RTVSPost2010PropOp28
 70
     1
102
RTVSPost2010Prop29
280
     1
102
RTVSPost2010PropOp29
 70
     1
102
RTVSPost2010Prop30
280
     1
102
RTVSPost2010PropOp30
 70
     1
102
RTVSPost2010Prop31
280
     0
102
RTVSPost2010PropOp31
 70
     1
102
RTVSPost2010Prop32
280
     0
102
RTVSPost2010PropOp32
 70
     1
102
RTVSPost2010Prop33
280
     0
102
RTVSPost2010PropOp33
 70
     1
102
RTVSPost2010Prop34
280
     0
102
RTVSPost2010PropOp34
 70
     1
102
RTVSPost2010Prop35
280
     0
102
RTVSPost2010PropOp35
 70
     1
102
RTVSPost2010Prop36
280
     0
102
RTVSPost2010PropOp36
 70
     1
102
RTVSPost2010Prop37
 90
       50
102
RTVSPost2010PropOp37
 70
     1
102
RTVSPost2010Prop38
140
0.0
102
RTVSPost2010PropOp38
 70
     1
102
RTVSPost2010Prop39
140
1.0
102
RTVSPost2010PropOp39
 70
     1
102
RTVSPost2010Prop40
 90
        0
102
RTVSPost2010PropOp40
 70
     1
102
RTVSPost2010Prop41ColorIndex
 90
       18
102
RTVSPost2010Prop41ColorRGB
 90
        0
102
RTVSPost2010PropOp41
 70
     1
102
RTVSPost2010Prop42
 90
       50
102
RTVSPost2010PropOp42
 70
     1
102
RTVSPost2010Prop43
 90
        3
102
RTVSPost2010PropOp43
 70
     1
102
RTVSPost2010Prop44ColorIndex
 90
        5
102
RTVSPost2010Prop44ColorRGB
 90
      255
102
RTVSPost2010PropOp44
 70
     1
102
RTVSPost2010Prop45
280
     0
102
RTVSPost2010PropOp45
 70
     1
102
RTVSPost2010Prop46
 90
       50
102
RTVSPost2010PropOp46
 70
     1
102
RTVSPost2010Prop47
 90
       50
102
RTVSPost2010PropOp47
 70
     1
102
RTVSPost2010Prop48
 90
       50
102
RTVSPost2010PropOp48
 70
     1
102
RTVSPost2010Prop49
280
     0
102
RTVSPost2010PropOp49
 70
     1
102
RTVSPost2010Prop50
 90
       50
102
RTVSPost2010PropOp50
 70
     1
102
RTVSPost2010Prop51ColorIndex
 90
      256
102
RTVSPost2010Prop51ColorRGB
 90
-16777216
102
RTVSPost2010PropOp51
 70
     0
102
RTVSPost2010Prop52
140
1.0
102
RTVSPost2010PropOp52
 70
     0
102
RTVSPost2010Prop53
 90
        2
102
RTVSPost2010PropOp53
 70
     1
102
RTVSPost2010Prop54
  1
strokes_ogs.tif
102
RTVSPost2010PropOp54
 70
     1
102
RTVSPost2010Prop55
280
     0
102
RTVSPost2010PropOp55
 70
     1
102
RTVSPost2010Prop56
140
1.0
102
RTVSPost2010PropOp56
 70
     1
102
RTVSPost2010Prop57
140
1.0
102
RTVSPost2010PropOp57
 70
     1
  0
XRECORD
  5
2DD
102
{ACAD_REACTORS
330
2DC
102
}
330
2DC
100
AcDbXrecord
280
     1
102
RTVSPropertyOp0
 70
     1
102
RTVSPropertyOp1
 70
     1
102
RTVSPropertyOp2
 70
     1
102
RTVSPropertyOp3
 70
     1
102
RTVSPropertyOp4
 70
     1
102
RTVSPropertyOp5
 70
     1
102
RTVSPropertyOp6
 70
     1
102
RTVSPropertyOp7
 70
     1
102
RTVSPropertyOp8
 70
     1
102
RTVSPropertyOp9
 70
     1
102
RTVSPropertyOp10
 70
     1
102
RTVSPropertyOp11
 70
     1
102
RTVSPropertyOp12
 70
     1
102
RTVSPropertyOp13
 70
     1
102
RTVSPropertyOp14
 70
     1
102
RTVSPropertyOp15
 70
     1
102
RTVSPropertyOp16
 70
     1
102
RTVSPropertyOp17
 70
     1
102
RTVSPropertyOp18
 70
     1
102
RTVSPropertyOp19
 70
     1
102
RTVSPropertyOp20
 70
     1
102
RTVSPropertyOp21
 70
     1
102
RTVSPropertyOp22
 70
     1
102
RTVSPropertyOp23
 70
     1
102
RTVSPropertyOp24
 70
     1
102
RTVSPropertyOp25
 70
     1
102
RTVSPropertyOp26
 70
     1
102
RTVSPropertyOp27
 70
     1
102
RTVSPropertyOp28
 70
     1
102
RTVSPropertyOp29
 70
     1
102
RTVSPropertyOp30
 70
     1
102
RTVSPropertyOp31
 70
     1
102
RTVSPropertyOp32
 70
     1
102
RTVSPropertyOp33
 70
     1
102
RTVSPropertyOp34
 70
     1
102
RTVSPropertyOp35
 70
     1
102
RTVSPropertyOp36
 70
     1
102
RTVSPropertyOp37
 70
     1
102
RTVSPropertyOp38
 70
     1
102
RTVSPropertyOp39
 70
     1
102
RTVSPropertyOp40
 70
     1
102
RTVSPropertyOp41
 70
     1
102
RTVSPropertyOp42
 70
     1
102
RTVSPropertyOp43
 70
     1
102
RTVSPropertyOp44
 70
     1
102
RTVSPropertyOp45
 70
     1
102
RTVSPropertyOp46
 70
     1
102
RTVSPropertyOp47
 70
     1
102
RTVSPropertyOp48
 70
     1
102
RTVSPropertyOp49
 70
     1
102
RTVSPropertyOp50
 70
     1
102
RTVSPropertyOp51
 70
     0
102
RTVSPropertyOp52
 70
     0
102
RTVSPropertyOp53
 70
     1
102
RTVSPropertyOp54
 70
     1
102
RTVSPropertyOp55
 70
     1
102
RTVSPropertyOp56
 70
     1
102
RTVSPropertyOp57
 70
     1
102
RTVSPost2010Prop28
280
     0
102
RTVSPost2010PropOp28
 70
     1
102
RTVSPost2010Prop29
280
     1
102
RTVSPost2010PropOp29
 70
     1
102
RTVSPost2010Prop30
280
     1
102
RTVSPost2010PropOp30
 70
     1
102
RTVSPost2010Prop31
280
     0
102
RTVSPost2010PropOp31
 70
     1
102
RTVSPost2010Prop32
280
     0
102
RTVSPost2010PropOp32
 70
     1
102
RTVSPost2010Prop33
280
     0
102
RTVSPost2010PropOp33
 70
     1
102
RTVSPost2010Prop34
280
     0
102
RTVSPost2010PropOp34
 70
     1
102
RTVSPost2010Prop35
280
     0
102
RTVSPost2010PropOp35
 70
     1
102
RTVSPost2010Prop36
280
     0
102
RTVSPost2010PropOp36
 70
     1
102
RTVSPost2010Prop37
 90
       50
102
RTVSPost2010PropOp37
 70
     1
102
RTVSPost2010Prop38
140
0.0
102
RTVSPost2010PropOp38
 70
     1
102
RTVSPost2010Prop39
140
1.0
102
RTVSPost2010PropOp39
 70
     1
102
RTVSPost2010Prop40
 90
        0
102
RTVSPost2010PropOp40
 70
     1
102
RTVSPost2010Prop41ColorIndex
 90
       18
102
RTVSPost2010Prop41ColorRGB
 90
        0
102
RTVSPost2010PropOp41
 70
     1
102
RTVSPost2010Prop42
 90
       50
102
RTVSPost2010PropOp42
 70
     1
102
RTVSPost2010Prop43
 90
        3
102
RTVSPost2010PropOp43
 70
     1
102
RTVSPost2010Prop44ColorIndex
 90
        5
102
RTVSPost2010Prop44ColorRGB
 90
      255
102
RTVSPost2010PropOp44
 70
     1
102
RTVSPost2010Prop45
280
     0
102
RTVSPost2010PropOp45
 70
     1
102
RTVSPost2010Prop46
 90
       50
102
RTVSPost2010PropOp46
 70
     1
102
RTVSPost2010Prop47
 90
       50
102
RTVSPost2010PropOp47
 70
     1
102
RTVSPost2010Prop48
 90
       50
102
RTVSPost2010PropOp48
 70
     1
102
RTVSPost2010Prop49
280
     0
102
RTVSPost2010PropOp49
 70
     1
102
RTVSPost2010Prop50
 90
       50
102
RTVSPost2010PropOp50
 70
     1
102
RTVSPost2010Prop51ColorIndex
 90
      256
102
RTVSPost2010Prop51ColorRGB
 90
-16777216
102
RTVSPost2010PropOp51
 70
     0
102
RTVSPost2010Prop52
140
1.0
102
RTVSPost2010PropOp52
 70
     0
102
RTVSPost2010Prop53
 90
        2
102
RTVSPost2010PropOp53
 70
     1
102
RTVSPost2010Prop54
  1
strokes_ogs.tif
102
RTVSPost2010PropOp54
 70
     1
102
RTVSPost2010Prop55
280
     0
102
RTVSPost2010PropOp55
 70
     1
102
RTVSPost2010Prop56
140
1.0
102
RTVSPost2010PropOp56
 70
     1
102
RTVSPost2010Prop57
140
1.0
102
RTVSPost2010PropOp57
 70
     1
  0
XRECORD
  5
2DF
102
{ACAD_REACTORS
330
2DE
102
}
330
2DE
100
AcDbXrecord
280
     1
102
RTVSPropertyOp0
 70
     1
102
RTVSPropertyOp1
 70
     1
102
RTVSPropertyOp2
 70
     1
102
RTVSPropertyOp3
 70
     1
102
RTVSPropertyOp4
 70
     1
102
RTVSPropertyOp5
 70
     1
102
RTVSPropertyOp6
 70
     1
102
RTVSPropertyOp7
 70
     1
102
RTVSPropertyOp8
 70
     1
102
RTVSPropertyOp9
 70
     1
102
RTVSPropertyOp10
 70
     1
102
RTVSPropertyOp11
 70
     1
102
RTVSPropertyOp12
 70
     1
102
RTVSPropertyOp13
 70
     1
102
RTVSPropertyOp14
 70
     1
102
RTVSPropertyOp15
 70
     1
102
RTVSPropertyOp16
 70
     1
102
RTVSPropertyOp17
 70
     1
102
RTVSPropertyOp18
 70
     1
102
RTVSPropertyOp19
 70
     1
102
RTVSPropertyOp20
 70
     1
102
RTVSPropertyOp21
 70
     1
102
RTVSPropertyOp22
 70
     1
102
RTVSPropertyOp23
 70
     1
102
RTVSPropertyOp24
 70
     1
102
RTVSPropertyOp25
 70
     1
102
RTVSPropertyOp26
 70
     1
102
RTVSPropertyOp27
 70
     1
102
RTVSPropertyOp28
 70
     1
102
RTVSPropertyOp29
 70
     1
102
RTVSPropertyOp30
 70
     1
102
RTVSPropertyOp31
 70
     1
102
RTVSPropertyOp32
 70
     1
102
RTVSPropertyOp33
 70
     1
102
RTVSPropertyOp34
 70
     1
102
RTVSPropertyOp35
 70
     1
102
RTVSPropertyOp36
 70
     1
102
RTVSPropertyOp37
 70
     1
102
RTVSPropertyOp38
 70
     1
102
RTVSPropertyOp39
 70
     1
102
RTVSPropertyOp40
 70
     1
102
RTVSPropertyOp41
 70
     1
102
RTVSPropertyOp42
 70
     1
102
RTVSPropertyOp43
 70
     1
102
RTVSPropertyOp44
 70
     1
102
RTVSPropertyOp45
 70
     1
102
RTVSPropertyOp46
 70
     1
102
RTVSPropertyOp47
 70
     1
102
RTVSPropertyOp48
 70
     1
102
RTVSPropertyOp49
 70
     1
102
RTVSPropertyOp50
 70
     1
102
RTVSPropertyOp51
 70
     0
102
RTVSPropertyOp52
 70
     0
102
RTVSPropertyOp53
 70
     1
102
RTVSPropertyOp54
 70
     1
102
RTVSPropertyOp55
 70
     1
102
RTVSPropertyOp56
 70
     1
102
RTVSPropertyOp57
 70
     1
102
RTVSPost2010Prop28
280
     0
102
RTVSPost2010PropOp28
 70
     1
102
RTVSPost2010Prop29
280
     1
102
RTVSPost2010PropOp29
 70
     1
102
RTVSPost2010Prop30
280
     1
102
RTVSPost2010PropOp30
 70
     1
102
RTVSPost2010Prop31
280
     0
102
RTVSPost2010PropOp31
 70
     1
102
RTVSPost2010Prop32
280
     0
102
RTVSPost2010PropOp32
 70
     1
102
RTVSPost2010Prop33
280
     0
102
RTVSPost2010PropOp33
 70
     1
102
RTVSPost2010Prop34
280
     0
102
RTVSPost2010PropOp34
 70
     1
102
RTVSPost2010Prop35
280
     0
102
RTVSPost2010PropOp35
 70
     1
102
RTVSPost2010Prop36
280
     0
102
RTVSPost2010PropOp36
 70
     1
102
RTVSPost2010Prop37
 90
       50
102
RTVSPost2010PropOp37
 70
     1
102
RTVSPost2010Prop38
140
0.0
102
RTVSPost2010PropOp38
 70
     1
102
RTVSPost2010Prop39
140
1.0
102
RTVSPost2010PropOp39
 70
     1
102
RTVSPost2010Prop40
 90
        0
102
RTVSPost2010PropOp40
 70
     1
102
RTVSPost2010Prop41ColorIndex
 90
       18
102
RTVSPost2010Prop41ColorRGB
 90
        0
102
RTVSPost2010PropOp41
 70
     1
102
RTVSPost2010Prop42
 90
       50
102
RTVSPost2010PropOp42
 70
     1
102
RTVSPost2010Prop43
 90
        3
102
RTVSPost2010PropOp43
 70
     1
102
RTVSPost2010Prop44ColorIndex
 90
        5
102
RTVSPost2010Prop44ColorRGB
 90
      255
102
RTVSPost2010PropOp44
 70
     1
102
RTVSPost2010Prop45
280
     0
102
RTVSPost2010PropOp45
 70
     1
102
RTVSPost2010Prop46
 90
       50
102
RTVSPost2010PropOp46
 70
     1
102
RTVSPost2010Prop47
 90
       50
102
RTVSPost2010PropOp47
 70
     1
102
RTVSPost2010Prop48
 90
       50
102
RTVSPost2010PropOp48
 70
     1
102
RTVSPost2010Prop49
280
     0
102
RTVSPost2010PropOp49
 70
     1
102
RTVSPost2010Prop50
 90
       50
102
RTVSPost2010PropOp50
 70
     1
102
RTVSPost2010Prop51ColorIndex
 90
      256
102
RTVSPost2010Prop51ColorRGB
 90
-16777216
102
RTVSPost2010PropOp51
 70
     0
102
RTVSPost2010Prop52
140
1.0
102
RTVSPost2010PropOp52
 70
     0
102
RTVSPost2010Prop53
 90
        2
102
RTVSPost2010PropOp53
 70
     1
102
RTVSPost2010Prop54
  1
strokes_ogs.tif
102
RTVSPost2010PropOp54
 70
     1
102
RTVSPost2010Prop55
280
     0
102
RTVSPost2010PropOp55
 70
     1
102
RTVSPost2010Prop56
140
1.0
102
RTVSPost2010PropOp56
 70
     1
102
RTVSPost2010Prop57
140
1.0
102
RTVSPost2010PropOp57
 70
     1
  0
XRECORD
  5
2E1
102
{ACAD_REACTORS
330
2E0
102
}
330
2E0
100
AcDbXrecord
280
     1
102
RTVSPropertyOp0
 70
     1
102
RTVSPropertyOp1
 70
     1
102
RTVSPropertyOp2
 70
     1
102
RTVSPropertyOp3
 70
     1
102
RTVSPropertyOp4
 70
     1
102
RTVSPropertyOp5
 70
     1
102
RTVSPropertyOp6
 70
     1
102
RTVSPropertyOp7
 70
     1
102
RTVSPropertyOp8
 70
     1
102
RTVSPropertyOp9
 70
     1
102
RTVSPropertyOp10
 70
     1
102
RTVSPropertyOp11
 70
     1
102
RTVSPropertyOp12
 70
     1
102
RTVSPropertyOp13
 70
     1
102
RTVSPropertyOp14
 70
     1
102
RTVSPropertyOp15
 70
     1
102
RTVSPropertyOp16
 70
     1
102
RTVSPropertyOp17
 70
     1
102
RTVSPropertyOp18
 70
     1
102
RTVSPropertyOp19
 70
     1
102
RTVSPropertyOp20
 70
     1
102
RTVSPropertyOp21
 70
     1
102
RTVSPropertyOp22
 70
     1
102
RTVSPropertyOp23
 70
     1
102
RTVSPropertyOp24
 70
     1
102
RTVSPropertyOp25
 70
     1
102
RTVSPropertyOp26
 70
     1
102
RTVSPropertyOp27
 70
     1
102
RTVSPropertyOp28
 70
     1
102
RTVSPropertyOp29
 70
     1
102
RTVSPropertyOp30
 70
     1
102
RTVSPropertyOp31
 70
     1
102
RTVSPropertyOp32
 70
     1
102
RTVSPropertyOp33
 70
     1
102
RTVSPropertyOp34
 70
     1
102
RTVSPropertyOp35
 70
     1
102
RTVSPropertyOp36
 70
     1
102
RTVSPropertyOp37
 70
     1
102
RTVSPropertyOp38
 70
     1
102
RTVSPropertyOp39
 70
     1
102
RTVSPropertyOp40
 70
     1
102
RTVSPropertyOp41
 70
     1
102
RTVSPropertyOp42
 70
     1
102
RTVSPropertyOp43
 70
     1
102
RTVSPropertyOp44
 70
     1
102
RTVSPropertyOp45
 70
     1
102
RTVSPropertyOp46
 70
     1
102
RTVSPropertyOp47
 70
     1
102
RTVSPropertyOp48
 70
     1
102
RTVSPropertyOp49
 70
     1
102
RTVSPropertyOp50
 70
     1
102
RTVSPropertyOp51
 70
     0
102
RTVSPropertyOp52
 70
     0
102
RTVSPropertyOp53
 70
     1
102
RTVSPropertyOp54
 70
     1
102
RTVSPropertyOp55
 70
     1
102
RTVSPropertyOp56
 70
     1
102
RTVSPropertyOp57
 70
     1
102
RTVSPost2010Prop28
280
     0
102
RTVSPost2010PropOp28
 70
     1
102
RTVSPost2010Prop29
280
     1
102
RTVSPost2010PropOp29
 70
     1
102
RTVSPost2010Prop30
280
     1
102
RTVSPost2010PropOp30
 70
     1
102
RTVSPost2010Prop31
280
     0
102
RTVSPost2010PropOp31
 70
     1
102
RTVSPost2010Prop32
280
     0
102
RTVSPost2010PropOp32
 70
     1
102
RTVSPost2010Prop33
280
     0
102
RTVSPost2010PropOp33
 70
     1
102
RTVSPost2010Prop34
280
     0
102
RTVSPost2010PropOp34
 70
     1
102
RTVSPost2010Prop35
280
     0
102
RTVSPost2010PropOp35
 70
     1
102
RTVSPost2010Prop36
280
     0
102
RTVSPost2010PropOp36
 70
     1
102
RTVSPost2010Prop37
 90
       50
102
RTVSPost2010PropOp37
 70
     1
102
RTVSPost2010Prop38
140
0.0
102
RTVSPost2010PropOp38
 70
     1
102
RTVSPost2010Prop39
140
1.0
102
RTVSPost2010PropOp39
 70
     1
102
RTVSPost2010Prop40
 90
        0
102
RTVSPost2010PropOp40
 70
     1
102
RTVSPost2010Prop41ColorIndex
 90
       18
102
RTVSPost2010Prop41ColorRGB
 90
        0
102
RTVSPost2010PropOp41
 70
     1
102
RTVSPost2010Prop42
 90
       50
102
RTVSPost2010PropOp42
 70
     1
102
RTVSPost2010Prop43
 90
        3
102
RTVSPost2010PropOp43
 70
     1
102
RTVSPost2010Prop44ColorIndex
 90
        5
102
RTVSPost2010Prop44ColorRGB
 90
      255
102
RTVSPost2010PropOp44
 70
     1
102
RTVSPost2010Prop45
280
     0
102
RTVSPost2010PropOp45
 70
     1
102
RTVSPost2010Prop46
 90
       50
102
RTVSPost2010PropOp46
 70
     1
102
RTVSPost2010Prop47
 90
       50
102
RTVSPost2010PropOp47
 70
     1
102
RTVSPost2010Prop48
 90
       50
102
RTVSPost2010PropOp48
 70
     1
102
RTVSPost2010Prop49
280
     0
102
RTVSPost2010PropOp49
 70
     1
102
RTVSPost2010Prop50
 90
       50
102
RTVSPost2010PropOp50
 70
     1
102
RTVSPost2010Prop51ColorIndex
 90
      256
102
RTVSPost2010Prop51ColorRGB
 90
-16777216
102
RTVSPost2010PropOp51
 70
     0
102
RTVSPost2010Prop52
140
1.0
102
RTVSPost2010PropOp52
 70
     0
102
RTVSPost2010Prop53
 90
        2
102
RTVSPost2010PropOp53
 70
     1
102
RTVSPost2010Prop54
  1
strokes_ogs.tif
102
RTVSPost2010PropOp54
 70
     1
102
RTVSPost2010Prop55
280
     0
102
RTVSPost2010PropOp55
 70
     1
102
RTVSPost2010Prop56
140
1.0
102
RTVSPost2010PropOp56
 70
     1
102
RTVSPost2010Prop57
140
1.0
102
RTVSPost2010PropOp57
 70
     1
  0
XRECORD
  5
2E7
102
{ACAD_REACTORS
330
2E6
102
}
330
2E6
100
AcDbXrecord
280
     1
102
RTVSPropertyOp0
 70
     1
102
RTVSPropertyOp1
 70
     1
102
RTVSPropertyOp2
 70
     1
102
RTVSPropertyOp3
 70
     1
102
RTVSPropertyOp4
 70
     1
102
RTVSPropertyOp5
 70
     1
102
RTVSPropertyOp6
 70
     1
102
RTVSPropertyOp7
 70
     1
102
RTVSPropertyOp8
 70
     1
102
RTVSPropertyOp9
 70
     1
102
RTVSPropertyOp10
 70
     1
102
RTVSPropertyOp11
 70
     1
102
RTVSPropertyOp12
 70
     1
102
RTVSPropertyOp13
 70
     1
102
RTVSPropertyOp14
 70
     1
102
RTVSPropertyOp15
 70
     1
102
RTVSPropertyOp16
 70
     1
102
RTVSPropertyOp17
 70
     1
102
RTVSPropertyOp18
 70
     1
102
RTVSPropertyOp19
 70
     1
102
RTVSPropertyOp20
 70
     1
102
RTVSPropertyOp21
 70
     1
102
RTVSPropertyOp22
 70
     1
102
RTVSPropertyOp23
 70
     1
102
RTVSPropertyOp24
 70
     1
102
RTVSPropertyOp25
 70
     1
102
RTVSPropertyOp26
 70
     1
102
RTVSPropertyOp27
 70
     1
102
RTVSPropertyOp28
 70
     1
102
RTVSPropertyOp29
 70
     1
102
RTVSPropertyOp30
 70
     1
102
RTVSPropertyOp31
 70
     1
102
RTVSPropertyOp32
 70
     1
102
RTVSPropertyOp33
 70
     1
102
RTVSPropertyOp34
 70
     1
102
RTVSPropertyOp35
 70
     1
102
RTVSPropertyOp36
 70
     1
102
RTVSPropertyOp37
 70
     1
102
RTVSPropertyOp38
 70
     1
102
RTVSPropertyOp39
 70
     1
102
RTVSPropertyOp40
 70
     1
102
RTVSPropertyOp41
 70
     1
102
RTVSPropertyOp42
 70
     1
102
RTVSPropertyOp43
 70
     1
102
RTVSPropertyOp44
 70
     1
102
RTVSPropertyOp45
 70
     1
102
RTVSPropertyOp46
 70
     1
102
RTVSPropertyOp47
 70
     1
102
RTVSPropertyOp48
 70
     1
102
RTVSPropertyOp49
 70
     1
102
RTVSPropertyOp50
 70
     1
102
RTVSPropertyOp51
 70
     0
102
RTVSPropertyOp52
 70
     0
102
RTVSPropertyOp53
 70
     1
102
RTVSPropertyOp54
 70
     1
102
RTVSPropertyOp55
 70
     1
102
RTVSPropertyOp56
 70
     1
102
RTVSPropertyOp57
 70
     1
102
RTVSPost2010Prop28
280
     0
102
RTVSPost2010PropOp28
 70
     1
102
RTVSPost2010Prop29
280
     1
102
RTVSPost2010PropOp29
 70
     1
102
RTVSPost2010Prop30
280
     1
102
RTVSPost2010PropOp30
 70
     1
102
RTVSPost2010Prop31
280
     0
102
RTVSPost2010PropOp31
 70
     1
102
RTVSPost2010Prop32
280
     0
102
RTVSPost2010PropOp32
 70
     1
102
RTVSPost2010Prop33
280
     0
102
RTVSPost2010PropOp33
 70
     1
102
RTVSPost2010Prop34
280
     0
102
RTVSPost2010PropOp34
 70
     1
102
RTVSPost2010Prop35
280
     0
102
RTVSPost2010PropOp35
 70
     1
102
RTVSPost2010Prop36
280
     0
102
RTVSPost2010PropOp36
 70
     1
102
RTVSPost2010Prop37
 90
       50
102
RTVSPost2010PropOp37
 70
     1
102
RTVSPost2010Prop38
140
0.0
102
RTVSPost2010PropOp38
 70
     1
102
RTVSPost2010Prop39
140
1.0
102
RTVSPost2010PropOp39
 70
     1
102
RTVSPost2010Prop40
 90
        0
102
RTVSPost2010PropOp40
 70
     1
102
RTVSPost2010Prop41ColorIndex
 90
       18
102
RTVSPost2010Prop41ColorRGB
 90
        0
102
RTVSPost2010PropOp41
 70
     1
102
RTVSPost2010Prop42
 90
       50
102
RTVSPost2010PropOp42
 70
     1
102
RTVSPost2010Prop43
 90
        3
102
RTVSPost2010PropOp43
 70
     1
102
RTVSPost2010Prop44ColorIndex
 90
        5
102
RTVSPost2010Prop44ColorRGB
 90
      255
102
RTVSPost2010PropOp44
 70
     1
102
RTVSPost2010Prop45
280
     0
102
RTVSPost2010PropOp45
 70
     1
102
RTVSPost2010Prop46
 90
       50
102
RTVSPost2010PropOp46
 70
     1
102
RTVSPost2010Prop47
 90
       50
102
RTVSPost2010PropOp47
 70
     1
102
RTVSPost2010Prop48
 90
       50
102
RTVSPost2010PropOp48
 70
     1
102
RTVSPost2010Prop49
280
     0
102
RTVSPost2010PropOp49
 70
     1
102
RTVSPost2010Prop50
 90
       50
102
RTVSPost2010PropOp50
 70
     1
102
RTVSPost2010Prop51ColorIndex
 90
      256
102
RTVSPost2010Prop51ColorRGB
 90
-16777216
102
RTVSPost2010PropOp51
 70
     0
102
RTVSPost2010Prop52
140
1.0
102
RTVSPost2010PropOp52
 70
     0
102
RTVSPost2010Prop53
 90
        2
102
RTVSPost2010PropOp53
 70
     1
102
RTVSPost2010Prop54
  1
strokes_ogs.tif
102
RTVSPost2010PropOp54
 70
     1
102
RTVSPost2010Prop55
280
     0
102
RTVSPost2010PropOp55
 70
     1
102
RTVSPost2010Prop56
140
1.0
102
RTVSPost2010PropOp56
 70
     1
102
RTVSPost2010Prop57
140
1.0
102
RTVSPost2010PropOp57
 70
     1
  0
XRECORD
  5
2FB
102
{ACAD_REACTORS
330
2FA
102
}
330
2FA
100
AcDbXrecord
280
     1
102
RTVSPropertyOp0
 70
     0
102
RTVSPropertyOp1
 70
     0
102
RTVSPropertyOp2
 70
     0
102
RTVSPropertyOp3
 70
     0
102
RTVSPropertyOp4
 70
     0
102
RTVSPropertyOp5
 70
     0
102
RTVSPropertyOp6
 70
     0
102
RTVSPropertyOp7
 70
     0
102
RTVSPropertyOp8
 70
     0
102
RTVSPropertyOp9
 70
     0
102
RTVSPropertyOp10
 70
     0
102
RTVSPropertyOp11
 70
     0
102
RTVSPropertyOp12
 70
     0
102
RTVSPropertyOp13
 70
     0
102
RTVSPropertyOp14
 70
     2
102
RTVSPropertyOp15
 70
     0
102
RTVSPropertyOp16
 70
     0
102
RTVSPropertyOp17
 70
     0
102
RTVSPropertyOp18
 70
     0
102
RTVSPropertyOp19
 70
     0
102
RTVSPropertyOp20
 70
     0
102
RTVSPropertyOp21
 70
     0
102
RTVSPropertyOp22
 70
     0
102
RTVSPropertyOp23
 70
     0
102
RTVSPropertyOp24
 70
     0
102
RTVSPropertyOp25
 70
     0
102
RTVSPropertyOp26
 70
     0
102
RTVSPropertyOp27
 70
     0
102
RTVSPropertyOp28
 70
     0
102
RTVSPropertyOp29
 70
     0
102
RTVSPropertyOp30
 70
     0
102
RTVSPropertyOp31
 70
     0
102
RTVSPropertyOp32
 70
     0
102
RTVSPropertyOp33
 70
     0
102
RTVSPropertyOp34
 70
     0
102
RTVSPropertyOp35
 70
     0
102
RTVSPropertyOp36
 70
     0
102
RTVSPropertyOp37
 70
     0
102
RTVSPropertyOp38
 70
     0
102
RTVSPropertyOp39
 70
     0
102
RTVSPropertyOp40
 70
     0
102
RTVSPropertyOp41
 70
     0
102
RTVSPropertyOp42
 70
     0
102
RTVSPropertyOp43
 70
     0
102
RTVSPropertyOp44
 70
     0
102
RTVSPropertyOp45
 70
     0
102
RTVSPropertyOp46
 70
     0
102
RTVSPropertyOp47
 70
     0
102
RTVSPropertyOp48
 70
     0
102
RTVSPropertyOp49
 70
     0
102
RTVSPropertyOp50
 70
     0
102
RTVSPropertyOp51
 70
     0
102
RTVSPropertyOp52
 70
     0
102
RTVSPropertyOp53
 70
     0
102
RTVSPropertyOp54
 70
     0
102
RTVSPropertyOp55
 70
     0
102
RTVSPropertyOp56
 70
     0
102
RTVSPropertyOp57
 70
     0
102
RTVSPost2010Prop28
280
     0
102
RTVSPost2010PropOp28
 70
     0
102
RTVSPost2010Prop29
280
     1
102
RTVSPost2010PropOp29
 70
     0
102
RTVSPost2010Prop30
280
     1
102
RTVSPost2010PropOp30
 70
     0
102
RTVSPost2010Prop31
280
     0
102
RTVSPost2010PropOp31
 70
     0
102
RTVSPost2010Prop32
280
     0
102
RTVSPost2010PropOp32
 70
     0
102
RTVSPost2010Prop33
280
     0
102
RTVSPost2010PropOp33
 70
     0
102
RTVSPost2010Prop34
280
     0
102
RTVSPost2010PropOp34
 70
     0
102
RTVSPost2010Prop35
280
     0
102
RTVSPost2010PropOp35
 70
     0
102
RTVSPost2010Prop36
280
     0
102
RTVSPost2010PropOp36
 70
     0
102
RTVSPost2010Prop37
 90
       50
102
RTVSPost2010PropOp37
 70
     0
102
RTVSPost2010Prop38
140
0.0
102
RTVSPost2010PropOp38
 70
     0
102
RTVSPost2010Prop39
140
1.0
102
RTVSPost2010PropOp39
 70
     0
102
RTVSPost2010Prop40
 90
        0
102
RTVSPost2010PropOp40
 70
     0
102
RTVSPost2010Prop41ColorIndex
 90
       18
102
RTVSPost2010Prop41ColorRGB
 90
        0
102
RTVSPost2010PropOp41
 70
     0
102
RTVSPost2010Prop42
 90
       50
102
RTVSPost2010PropOp42
 70
     0
102
RTVSPost2010Prop43
 90
        3
102
RTVSPost2010PropOp43
 70
     0
102
RTVSPost2010Prop44ColorIndex
 90
        5
102
RTVSPost2010Prop44ColorRGB
 90
      255
102
RTVSPost2010PropOp44
 70
     0
102
RTVSPost2010Prop45
280
     0
102
RTVSPost2010PropOp45
 70
     0
102
RTVSPost2010Prop46
 90
       50
102
RTVSPost2010PropOp46
 70
     0
102
RTVSPost2010Prop47
 90
       50
102
RTVSPost2010PropOp47
 70
     0
102
RTVSPost2010Prop48
 90
       50
102
RTVSPost2010PropOp48
 70
     0
102
RTVSPost2010Prop49
280
     0
102
RTVSPost2010PropOp49
 70
     0
102
RTVSPost2010Prop50
 90
       50
102
RTVSPost2010PropOp50
 70
     0
102
RTVSPost2010Prop51ColorIndex
 90
      256
102
RTVSPost2010Prop51ColorRGB
 90
-16777216
102
RTVSPost2010PropOp51
 70
     0
102
RTVSPost2010Prop52
140
1.0
102
RTVSPost2010PropOp52
 70
     0
102
RTVSPost2010Prop53
 90
        2
102
RTVSPost2010PropOp53
 70
     0
102
RTVSPost2010Prop54
  1
strokes_ogs.tif
102
RTVSPost2010PropOp54
 70
     0
102
RTVSPost2010Prop55
280
     0
102
RTVSPost2010PropOp55
 70
     0
102
RTVSPost2010Prop56
140
1.0
102
RTVSPost2010PropOp56
 70
     0
102
RTVSPost2010Prop57
140
1.0
102
RTVSPost2010PropOp57
 70
     0
  0
XRECORD
  5
2F5
102
{ACAD_REACTORS
330
2F4
102
}
330
2F4
100
AcDbXrecord
280
     1
102
RTVSPropertyOp0
 70
     1
102
RTVSPropertyOp1
 70
     1
102
RTVSPropertyOp2
 70
     1
102
RTVSPropertyOp3
 70
     1
102
RTVSPropertyOp4
 70
     1
102
RTVSPropertyOp5
 70
     1
102
RTVSPropertyOp6
 70
     1
102
RTVSPropertyOp7
 70
     1
102
RTVSPropertyOp8
 70
     1
102
RTVSPropertyOp9
 70
     1
102
RTVSPropertyOp10
 70
     1
102
RTVSPropertyOp11
 70
     1
102
RTVSPropertyOp12
 70
     1
102
RTVSPropertyOp13
 70
     1
102
RTVSPropertyOp14
 70
     1
102
RTVSPropertyOp15
 70
     1
102
RTVSPropertyOp16
 70
     1
102
RTVSPropertyOp17
 70
     1
102
RTVSPropertyOp18
 70
     1
102
RTVSPropertyOp19
 70
     1
102
RTVSPropertyOp20
 70
     1
102
RTVSPropertyOp21
 70
     1
102
RTVSPropertyOp22
 70
     1
102
RTVSPropertyOp23
 70
     1
102
RTVSPropertyOp24
 70
     1
102
RTVSPropertyOp25
 70
     1
102
RTVSPropertyOp26
 70
     1
102
RTVSPropertyOp27
 70
     1
102
RTVSPropertyOp28
 70
     1
102
RTVSPropertyOp29
 70
     1
102
RTVSPropertyOp30
 70
     1
102
RTVSPropertyOp31
 70
     1
102
RTVSPropertyOp32
 70
     1
102
RTVSPropertyOp33
 70
     1
102
RTVSPropertyOp34
 70
     1
102
RTVSPropertyOp35
 70
     1
102
RTVSPropertyOp36
 70
     1
102
RTVSPropertyOp37
 70
     1
102
RTVSPropertyOp38
 70
     1
102
RTVSPropertyOp39
 70
     1
102
RTVSPropertyOp40
 70
     1
102
RTVSPropertyOp41
 70
     1
102
RTVSPropertyOp42
 70
     1
102
RTVSPropertyOp43
 70
     1
102
RTVSPropertyOp44
 70
     1
102
RTVSPropertyOp45
 70
     1
102
RTVSPropertyOp46
 70
     1
102
RTVSPropertyOp47
 70
     1
102
RTVSPropertyOp48
 70
     1
102
RTVSPropertyOp49
 70
     1
102
RTVSPropertyOp50
 70
     1
102
RTVSPropertyOp51
 70
     0
102
RTVSPropertyOp52
 70
     0
102
RTVSPropertyOp53
 70
     1
102
RTVSPropertyOp54
 70
     1
102
RTVSPropertyOp55
 70
     1
102
RTVSPropertyOp56
 70
     1
102
RTVSPropertyOp57
 70
     1
102
RTVSPost2010Prop28
280
     0
102
RTVSPost2010PropOp28
 70
     1
102
RTVSPost2010Prop29
280
     1
102
RTVSPost2010PropOp29
 70
     1
102
RTVSPost2010Prop30
280
     1
102
RTVSPost2010PropOp30
 70
     1
102
RTVSPost2010Prop31
280
     0
102
RTVSPost2010PropOp31
 70
     1
102
RTVSPost2010Prop32
280
     0
102
RTVSPost2010PropOp32
 70
     1
102
RTVSPost2010Prop33
280
     0
102
RTVSPost2010PropOp33
 70
     1
102
RTVSPost2010Prop34
280
     0
102
RTVSPost2010PropOp34
 70
     1
102
RTVSPost2010Prop35
280
     0
102
RTVSPost2010PropOp35
 70
     1
102
RTVSPost2010Prop36
280
     0
102
RTVSPost2010PropOp36
 70
     1
102
RTVSPost2010Prop37
 90
       50
102
RTVSPost2010PropOp37
 70
     1
102
RTVSPost2010Prop38
140
0.0
102
RTVSPost2010PropOp38
 70
     1
102
RTVSPost2010Prop39
140
1.0
102
RTVSPost2010PropOp39
 70
     1
102
RTVSPost2010Prop40
 90
        0
102
RTVSPost2010PropOp40
 70
     1
102
RTVSPost2010Prop41ColorIndex
 90
       18
102
RTVSPost2010Prop41ColorRGB
 90
        0
102
RTVSPost2010PropOp41
 70
     1
102
RTVSPost2010Prop42
 90
       50
102
RTVSPost2010PropOp42
 70
     1
102
RTVSPost2010Prop43
 90
        3
102
RTVSPost2010PropOp43
 70
     1
102
RTVSPost2010Prop44ColorIndex
 90
        5
102
RTVSPost2010Prop44ColorRGB
 90
      255
102
RTVSPost2010PropOp44
 70
     1
102
RTVSPost2010Prop45
280
     0
102
RTVSPost2010PropOp45
 70
     1
102
RTVSPost2010Prop46
 90
       50
102
RTVSPost2010PropOp46
 70
     1
102
RTVSPost2010Prop47
 90
       50
102
RTVSPost2010PropOp47
 70
     1
102
RTVSPost2010Prop48
 90
       50
102
RTVSPost2010PropOp48
 70
     1
102
RTVSPost2010Prop49
280
     0
102
RTVSPost2010PropOp49
 70
     1
102
RTVSPost2010Prop50
 90
       50
102
RTVSPost2010PropOp50
 70
     1
102
RTVSPost2010Prop51ColorIndex
 90
      256
102
RTVSPost2010Prop51ColorRGB
 90
-16777216
102
RTVSPost2010PropOp51
 70
     0
102
RTVSPost2010Prop52
140
1.0
102
RTVSPost2010PropOp52
 70
     0
102
RTVSPost2010Prop53
 90
        2
102
RTVSPost2010PropOp53
 70
     1
102
RTVSPost2010Prop54
  1
strokes_ogs.tif
102
RTVSPost2010PropOp54
 70
     1
102
RTVSPost2010Prop55
280
     0
102
RTVSPost2010PropOp55
 70
     1
102
RTVSPost2010Prop56
140
1.0
102
RTVSPost2010PropOp56
 70
     1
102
RTVSPost2010Prop57
140
1.0
102
RTVSPost2010PropOp57
 70
     1
  0
XRECORD
  5
2FD
102
{ACAD_REACTORS
330
2FC
102
}
330
2FC
100
AcDbXrecord
280
     1
102
RTVSPropertyOp0
 70
     0
102
RTVSPropertyOp1
 70
     0
102
RTVSPropertyOp2
 70
     0
102
RTVSPropertyOp3
 70
     0
102
RTVSPropertyOp4
 70
     0
102
RTVSPropertyOp5
 70
     0
102
RTVSPropertyOp6
 70
     0
102
RTVSPropertyOp7
 70
     0
102
RTVSPropertyOp8
 70
     0
102
RTVSPropertyOp9
 70
     0
102
RTVSPropertyOp10
 70
     0
102
RTVSPropertyOp11
 70
     0
102
RTVSPropertyOp12
 70
     0
102
RTVSPropertyOp13
 70
     0
102
RTVSPropertyOp14
 70
     2
102
RTVSPropertyOp15
 70
     0
102
RTVSPropertyOp16
 70
     0
102
RTVSPropertyOp17
 70
     0
102
RTVSPropertyOp18
 70
     0
102
RTVSPropertyOp19
 70
     0
102
RTVSPropertyOp20
 70
     0
102
RTVSPropertyOp21
 70
     0
102
RTVSPropertyOp22
 70
     0
102
RTVSPropertyOp23
 70
     0
102
RTVSPropertyOp24
 70
     0
102
RTVSPropertyOp25
 70
     0
102
RTVSPropertyOp26
 70
     0
102
RTVSPropertyOp27
 70
     0
102
RTVSPropertyOp28
 70
     0
102
RTVSPropertyOp29
 70
     0
102
RTVSPropertyOp30
 70
     0
102
RTVSPropertyOp31
 70
     0
102
RTVSPropertyOp32
 70
     0
102
RTVSPropertyOp33
 70
     0
102
RTVSPropertyOp34
 70
     0
102
RTVSPropertyOp35
 70
     0
102
RTVSPropertyOp36
 70
     0
102
RTVSPropertyOp37
 70
     0
102
RTVSPropertyOp38
 70
     0
102
RTVSPropertyOp39
 70
     0
102
RTVSPropertyOp40
 70
     0
102
RTVSPropertyOp41
 70
     0
102
RTVSPropertyOp42
 70
     0
102
RTVSPropertyOp43
 70
     0
102
RTVSPropertyOp44
 70
     0
102
RTVSPropertyOp45
 70
     0
102
RTVSPropertyOp46
 70
     0
102
RTVSPropertyOp47
 70
     0
102
RTVSPropertyOp48
 70
     0
102
RTVSPropertyOp49
 70
     0
102
RTVSPropertyOp50
 70
     0
102
RTVSPropertyOp51
 70
     0
102
RTVSPropertyOp52
 70
     0
102
RTVSPropertyOp53
 70
     0
102
RTVSPropertyOp54
 70
     0
102
RTVSPropertyOp55
 70
     0
102
RTVSPropertyOp56
 70
     0
102
RTVSPropertyOp57
 70
     0
102
RTVSPost2010Prop28
280
     0
102
RTVSPost2010PropOp28
 70
     0
102
RTVSPost2010Prop29
280
     1
102
RTVSPost2010PropOp29
 70
     0
102
RTVSPost2010Prop30
280
     1
102
RTVSPost2010PropOp30
 70
     0
102
RTVSPost2010Prop31
280
     0
102
RTVSPost2010PropOp31
 70
     0
102
RTVSPost2010Prop32
280
     0
102
RTVSPost2010PropOp32
 70
     0
102
RTVSPost2010Prop33
280
     0
102
RTVSPost2010PropOp33
 70
     0
102
RTVSPost2010Prop34
280
     0
102
RTVSPost2010PropOp34
 70
     0
102
RTVSPost2010Prop35
280
     0
102
RTVSPost2010PropOp35
 70
     0
102
RTVSPost2010Prop36
280
     0
102
RTVSPost2010PropOp36
 70
     0
102
RTVSPost2010Prop37
 90
       50
102
RTVSPost2010PropOp37
 70
     0
102
RTVSPost2010Prop38
140
0.0
102
RTVSPost2010PropOp38
 70
     0
102
RTVSPost2010Prop39
140
1.0
102
RTVSPost2010PropOp39
 70
     0
102
RTVSPost2010Prop40
 90
        0
102
RTVSPost2010PropOp40
 70
     0
102
RTVSPost2010Prop41ColorIndex
 90
       18
102
RTVSPost2010Prop41ColorRGB
 90
        0
102
RTVSPost2010PropOp41
 70
     0
102
RTVSPost2010Prop42
 90
       50
102
RTVSPost2010PropOp42
 70
     0
102
RTVSPost2010Prop43
 90
        3
102
RTVSPost2010PropOp43
 70
     0
102
RTVSPost2010Prop44ColorIndex
 90
        5
102
RTVSPost2010Prop44ColorRGB
 90
      255
102
RTVSPost2010PropOp44
 70
     0
102
RTVSPost2010Prop45
280
     0
102
RTVSPost2010PropOp45
 70
     0
102
RTVSPost2010Prop46
 90
       50
102
RTVSPost2010PropOp46
 70
     0
102
RTVSPost2010Prop47
 90
       50
102
RTVSPost2010PropOp47
 70
     0
102
RTVSPost2010Prop48
 90
       50
102
RTVSPost2010PropOp48
 70
     0
102
RTVSPost2010Prop49
280
     0
102
RTVSPost2010PropOp49
 70
     0
102
RTVSPost2010Prop50
 90
       50
102
RTVSPost2010PropOp50
 70
     0
102
RTVSPost2010Prop51ColorIndex
 90
      256
102
RTVSPost2010Prop51ColorRGB
 90
-16777216
102
RTVSPost2010PropOp51
 70
     0
102
RTVSPost2010Prop52
140
1.0
102
RTVSPost2010PropOp52
 70
     0
102
RTVSPost2010Prop53
 90
        2
102
RTVSPost2010PropOp53
 70
     0
102
RTVSPost2010Prop54
  1
strokes_ogs.tif
102
RTVSPost2010PropOp54
 70
     0
102
RTVSPost2010Prop55
280
     0
102
RTVSPost2010PropOp55
 70
     0
102
RTVSPost2010Prop56
140
1.0
102
RTVSPost2010PropOp56
 70
     0
102
RTVSPost2010Prop57
140
1.0
102
RTVSPost2010PropOp57
 70
     0
  0
XRECORD
  5
2EB
102
{ACAD_REACTORS
330
2EA
102
}
330
2EA
100
AcDbXrecord
280
     1
102
RTVSPropertyOp0
 70
     1
102
RTVSPropertyOp1
 70
     1
102
RTVSPropertyOp2
 70
     1
102
RTVSPropertyOp3
 70
     1
102
RTVSPropertyOp4
 70
     1
102
RTVSPropertyOp5
 70
     1
102
RTVSPropertyOp6
 70
     1
102
RTVSPropertyOp7
 70
     1
102
RTVSPropertyOp8
 70
     1
102
RTVSPropertyOp9
 70
     1
102
RTVSPropertyOp10
 70
     1
102
RTVSPropertyOp11
 70
     1
102
RTVSPropertyOp12
 70
     1
102
RTVSPropertyOp13
 70
     1
102
RTVSPropertyOp14
 70
     1
102
RTVSPropertyOp15
 70
     1
102
RTVSPropertyOp16
 70
     1
102
RTVSPropertyOp17
 70
     1
102
RTVSPropertyOp18
 70
     1
102
RTVSPropertyOp19
 70
     1
102
RTVSPropertyOp20
 70
     1
102
RTVSPropertyOp21
 70
     1
102
RTVSPropertyOp22
 70
     1
102
RTVSPropertyOp23
 70
     1
102
RTVSPropertyOp24
 70
     1
102
RTVSPropertyOp25
 70
     1
102
RTVSPropertyOp26
 70
     1
102
RTVSPropertyOp27
 70
     1
102
RTVSPropertyOp28
 70
     1
102
RTVSPropertyOp29
 70
     1
102
RTVSPropertyOp30
 70
     1
102
RTVSPropertyOp31
 70
     1
102
RTVSPropertyOp32
 70
     1
102
RTVSPropertyOp33
 70
     1
102
RTVSPropertyOp34
 70
     1
102
RTVSPropertyOp35
 70
     1
102
RTVSPropertyOp36
 70
     1
102
RTVSPropertyOp37
 70
     1
102
RTVSPropertyOp38
 70
     1
102
RTVSPropertyOp39
 70
     1
102
RTVSPropertyOp40
 70
     1
102
RTVSPropertyOp41
 70
     1
102
RTVSPropertyOp42
 70
     1
102
RTVSPropertyOp43
 70
     1
102
RTVSPropertyOp44
 70
     1
102
RTVSPropertyOp45
 70
     1
102
RTVSPropertyOp46
 70
     1
102
RTVSPropertyOp47
 70
     1
102
RTVSPropertyOp48
 70
     1
102
RTVSPropertyOp49
 70
     1
102
RTVSPropertyOp50
 70
     1
102
RTVSPropertyOp51
 70
     0
102
RTVSPropertyOp52
 70
     0
102
RTVSPropertyOp53
 70
     1
102
RTVSPropertyOp54
 70
     1
102
RTVSPropertyOp55
 70
     1
102
RTVSPropertyOp56
 70
     1
102
RTVSPropertyOp57
 70
     1
102
RTVSPost2010Prop28
280
     0
102
RTVSPost2010PropOp28
 70
     1
102
RTVSPost2010Prop29
280
     1
102
RTVSPost2010PropOp29
 70
     1
102
RTVSPost2010Prop30
280
     1
102
RTVSPost2010PropOp30
 70
     1
102
RTVSPost2010Prop31
280
     0
102
RTVSPost2010PropOp31
 70
     1
102
RTVSPost2010Prop32
280
     0
102
RTVSPost2010PropOp32
 70
     1
102
RTVSPost2010Prop33
280
     0
102
RTVSPost2010PropOp33
 70
     1
102
RTVSPost2010Prop34
280
     0
102
RTVSPost2010PropOp34
 70
     1
102
RTVSPost2010Prop35
280
     0
102
RTVSPost2010PropOp35
 70
     1
102
RTVSPost2010Prop36
280
     0
102
RTVSPost2010PropOp36
 70
     1
102
RTVSPost2010Prop37
 90
       50
102
RTVSPost2010PropOp37
 70
     1
102
RTVSPost2010Prop38
140
0.0
102
RTVSPost2010PropOp38
 70
     1
102
RTVSPost2010Prop39
140
1.0
102
RTVSPost2010PropOp39
 70
     1
102
RTVSPost2010Prop40
 90
        0
102
RTVSPost2010PropOp40
 70
     1
102
RTVSPost2010Prop41ColorIndex
 90
       18
102
RTVSPost2010Prop41ColorRGB
 90
        0
102
RTVSPost2010PropOp41
 70
     1
102
RTVSPost2010Prop42
 90
       50
102
RTVSPost2010PropOp42
 70
     1
102
RTVSPost2010Prop43
 90
        3
102
RTVSPost2010PropOp43
 70
     1
102
RTVSPost2010Prop44ColorIndex
 90
        5
102
RTVSPost2010Prop44ColorRGB
 90
      255
102
RTVSPost2010PropOp44
 70
     1
102
RTVSPost2010Prop45
280
     0
102
RTVSPost2010PropOp45
 70
     1
102
RTVSPost2010Prop46
 90
       50
102
RTVSPost2010PropOp46
 70
     1
102
RTVSPost2010Prop47
 90
       50
102
RTVSPost2010PropOp47
 70
     1
102
RTVSPost2010Prop48
 90
       50
102
RTVSPost2010PropOp48
 70
     1
102
RTVSPost2010Prop49
280
     0
102
RTVSPost2010PropOp49
 70
     1
102
RTVSPost2010Prop50
 90
       50
102
RTVSPost2010PropOp50
 70
     1
102
RTVSPost2010Prop51ColorIndex
 90
      256
102
RTVSPost2010Prop51ColorRGB
 90
-16777216
102
RTVSPost2010PropOp51
 70
     0
102
RTVSPost2010Prop52
140
1.0
102
RTVSPost2010PropOp52
 70
     0
102
RTVSPost2010Prop53
 90
        2
102
RTVSPost2010PropOp53
 70
     1
102
RTVSPost2010Prop54
  1
strokes_ogs.tif
102
RTVSPost2010PropOp54
 70
     1
102
RTVSPost2010Prop55
280
     0
102
RTVSPost2010PropOp55
 70
     1
102
RTVSPost2010Prop56
140
1.0
102
RTVSPost2010PropOp56
 70
     1
102
RTVSPost2010Prop57
140
1.0
102
RTVSPost2010PropOp57
 70
     1
  0
XRECORD
  5
309
102
{ACAD_REACTORS
330
308
102
}
330
308
100
AcDbXrecord
280
     1
102
RTVSPropertyOp0
 70
     1
102
RTVSPropertyOp1
 70
     1
102
RTVSPropertyOp2
 70
     1
102
RTVSPropertyOp3
 70
     1
102
RTVSPropertyOp4
 70
     1
102
RTVSPropertyOp5
 70
     1
102
RTVSPropertyOp6
 70
     1
102
RTVSPropertyOp7
 70
     1
102
RTVSPropertyOp8
 70
     1
102
RTVSPropertyOp9
 70
     1
102
RTVSPropertyOp10
 70
     1
102
RTVSPropertyOp11
 70
     1
102
RTVSPropertyOp12
 70
     1
102
RTVSPropertyOp13
 70
     1
102
RTVSPropertyOp14
 70
     1
102
RTVSPropertyOp15
 70
     1
102
RTVSPropertyOp16
 70
     1
102
RTVSPropertyOp17
 70
     1
102
RTVSPropertyOp18
 70
     1
102
RTVSPropertyOp19
 70
     1
102
RTVSPropertyOp20
 70
     1
102
RTVSPropertyOp21
 70
     1
102
RTVSPropertyOp22
 70
     1
102
RTVSPropertyOp23
 70
     1
102
RTVSPropertyOp24
 70
     1
102
RTVSPropertyOp25
 70
     1
102
RTVSPropertyOp26
 70
     1
102
RTVSPropertyOp27
 70
     1
102
RTVSPropertyOp28
 70
     1
102
RTVSPropertyOp29
 70
     1
102
RTVSPropertyOp30
 70
     1
102
RTVSPropertyOp31
 70
     1
102
RTVSPropertyOp32
 70
     1
102
RTVSPropertyOp33
 70
     1
102
RTVSPropertyOp34
 70
     1
102
RTVSPropertyOp35
 70
     1
102
RTVSPropertyOp36
 70
     1
102
RTVSPropertyOp37
 70
     1
102
RTVSPropertyOp38
 70
     1
102
RTVSPropertyOp39
 70
     1
102
RTVSPropertyOp40
 70
     1
102
RTVSPropertyOp41
 70
     1
102
RTVSPropertyOp42
 70
     1
102
RTVSPropertyOp43
 70
     1
102
RTVSPropertyOp44
 70
     1
102
RTVSPropertyOp45
 70
     1
102
RTVSPropertyOp46
 70
     1
102
RTVSPropertyOp47
 70
     1
102
RTVSPropertyOp48
 70
     1
102
RTVSPropertyOp49
 70
     1
102
RTVSPropertyOp50
 70
     1
102
RTVSPropertyOp51
 70
     0
102
RTVSPropertyOp52
 70
     0
102
RTVSPropertyOp53
 70
     1
102
RTVSPropertyOp54
 70
     1
102
RTVSPropertyOp55
 70
     1
102
RTVSPropertyOp56
 70
     1
102
RTVSPropertyOp57
 70
     1
102
RTVSPost2010Prop28
280
     0
102
RTVSPost2010PropOp28
 70
     1
102
RTVSPost2010Prop29
280
     1
102
RTVSPost2010PropOp29
 70
     1
102
RTVSPost2010Prop30
280
     1
102
RTVSPost2010PropOp30
 70
     1
102
RTVSPost2010Prop31
280
     0
102
RTVSPost2010PropOp31
 70
     1
102
RTVSPost2010Prop32
280
     0
102
RTVSPost2010PropOp32
 70
     1
102
RTVSPost2010Prop33
280
     0
102
RTVSPost2010PropOp33
 70
     1
102
RTVSPost2010Prop34
280
     0
102
RTVSPost2010PropOp34
 70
     1
102
RTVSPost2010Prop35
280
     0
102
RTVSPost2010PropOp35
 70
     1
102
RTVSPost2010Prop36
280
     0
102
RTVSPost2010PropOp36
 70
     1
102
RTVSPost2010Prop37
 90
       50
102
RTVSPost2010PropOp37
 70
     1
102
RTVSPost2010Prop38
140
0.0
102
RTVSPost2010PropOp38
 70
     1
102
RTVSPost2010Prop39
140
1.0
102
RTVSPost2010PropOp39
 70
     1
102
RTVSPost2010Prop40
 90
        0
102
RTVSPost2010PropOp40
 70
     1
102
RTVSPost2010Prop41ColorIndex
 90
       18
102
RTVSPost2010Prop41ColorRGB
 90
        0
102
RTVSPost2010PropOp41
 70
     1
102
RTVSPost2010Prop42
 90
       50
102
RTVSPost2010PropOp42
 70
     1
102
RTVSPost2010Prop43
 90
        3
102
RTVSPost2010PropOp43
 70
     1
102
RTVSPost2010Prop44ColorIndex
 90
        5
102
RTVSPost2010Prop44ColorRGB
 90
      255
102
RTVSPost2010PropOp44
 70
     1
102
RTVSPost2010Prop45
280
     0
102
RTVSPost2010PropOp45
 70
     1
102
RTVSPost2010Prop46
 90
       50
102
RTVSPost2010PropOp46
 70
     1
102
RTVSPost2010Prop47
 90
       50
102
RTVSPost2010PropOp47
 70
     1
102
RTVSPost2010Prop48
 90
       50
102
RTVSPost2010PropOp48
 70
     1
102
RTVSPost2010Prop49
280
     0
102
RTVSPost2010PropOp49
 70
     1
102
RTVSPost2010Prop50
 90
       50
102
RTVSPost2010PropOp50
 70
     1
102
RTVSPost2010Prop51ColorIndex
 90
      256
102
RTVSPost2010Prop51ColorRGB
 90
-16777216
102
RTVSPost2010PropOp51
 70
     0
102
RTVSPost2010Prop52
140
1.0
102
RTVSPost2010PropOp52
 70
     0
102
RTVSPost2010Prop53
 90
        2
102
RTVSPost2010PropOp53
 70
     1
102
RTVSPost2010Prop54
  1
strokes_ogs.tif
102
RTVSPost2010PropOp54
 70
     1
102
RTVSPost2010Prop55
280
     0
102
RTVSPost2010PropOp55
 70
     1
102
RTVSPost2010Prop56
140
1.0
102
RTVSPost2010PropOp56
 70
     1
102
RTVSPost2010Prop57
140
1.0
102
RTVSPost2010PropOp57
 70
     1
  0
XRECORD
  5
307
102
{ACAD_REACTORS
330
306
102
}
330
306
100
AcDbXrecord
280
     1
102
RTVSPropertyOp0
 70
     1
102
RTVSPropertyOp1
 70
     1
102
RTVSPropertyOp2
 70
     1
102
RTVSPropertyOp3
 70
     1
102
RTVSPropertyOp4
 70
     1
102
RTVSPropertyOp5
 70
     1
102
RTVSPropertyOp6
 70
     1
102
RTVSPropertyOp7
 70
     1
102
RTVSPropertyOp8
 70
     1
102
RTVSPropertyOp9
 70
     1
102
RTVSPropertyOp10
 70
     1
102
RTVSPropertyOp11
 70
     1
102
RTVSPropertyOp12
 70
     1
102
RTVSPropertyOp13
 70
     1
102
RTVSPropertyOp14
 70
     1
102
RTVSPropertyOp15
 70
     1
102
RTVSPropertyOp16
 70
     1
102
RTVSPropertyOp17
 70
     1
102
RTVSPropertyOp18
 70
     1
102
RTVSPropertyOp19
 70
     1
102
RTVSPropertyOp20
 70
     1
102
RTVSPropertyOp21
 70
     1
102
RTVSPropertyOp22
 70
     1
102
RTVSPropertyOp23
 70
     1
102
RTVSPropertyOp24
 70
     1
102
RTVSPropertyOp25
 70
     1
102
RTVSPropertyOp26
 70
     1
102
RTVSPropertyOp27
 70
     1
102
RTVSPropertyOp28
 70
     1
102
RTVSPropertyOp29
 70
     1
102
RTVSPropertyOp30
 70
     1
102
RTVSPropertyOp31
 70
     1
102
RTVSPropertyOp32
 70
     1
102
RTVSPropertyOp33
 70
     1
102
RTVSPropertyOp34
 70
     1
102
RTVSPropertyOp35
 70
     1
102
RTVSPropertyOp36
 70
     1
102
RTVSPropertyOp37
 70
     1
102
RTVSPropertyOp38
 70
     1
102
RTVSPropertyOp39
 70
     1
102
RTVSPropertyOp40
 70
     1
102
RTVSPropertyOp41
 70
     1
102
RTVSPropertyOp42
 70
     1
102
RTVSPropertyOp43
 70
     1
102
RTVSPropertyOp44
 70
     1
102
RTVSPropertyOp45
 70
     1
102
RTVSPropertyOp46
 70
     1
102
RTVSPropertyOp47
 70
     1
102
RTVSPropertyOp48
 70
     1
102
RTVSPropertyOp49
 70
     1
102
RTVSPropertyOp50
 70
     1
102
RTVSPropertyOp51
 70
     0
102
RTVSPropertyOp52
 70
     0
102
RTVSPropertyOp53
 70
     1
102
RTVSPropertyOp54
 70
     1
102
RTVSPropertyOp55
 70
     1
102
RTVSPropertyOp56
 70
     1
102
RTVSPropertyOp57
 70
     1
102
RTVSPost2010Prop28
280
     0
102
RTVSPost2010PropOp28
 70
     1
102
RTVSPost2010Prop29
280
     1
102
RTVSPost2010PropOp29
 70
     1
102
RTVSPost2010Prop30
280
     1
102
RTVSPost2010PropOp30
 70
     1
102
RTVSPost2010Prop31
280
     0
102
RTVSPost2010PropOp31
 70
     1
102
RTVSPost2010Prop32
280
     0
102
RTVSPost2010PropOp32
 70
     1
102
RTVSPost2010Prop33
280
     0
102
RTVSPost2010PropOp33
 70
     1
102
RTVSPost2010Prop34
280
     0
102
RTVSPost2010PropOp34
 70
     1
102
RTVSPost2010Prop35
280
     0
102
RTVSPost2010PropOp35
 70
     1
102
RTVSPost2010Prop36
280
     0
102
RTVSPost2010PropOp36
 70
     1
102
RTVSPost2010Prop37
 90
       50
102
RTVSPost2010PropOp37
 70
     1
102
RTVSPost2010Prop38
140
0.0
102
RTVSPost2010PropOp38
 70
     1
102
RTVSPost2010Prop39
140
1.0
102
RTVSPost2010PropOp39
 70
     1
102
RTVSPost2010Prop40
 90
        0
102
RTVSPost2010PropOp40
 70
     1
102
RTVSPost2010Prop41ColorIndex
 90
       18
102
RTVSPost2010Prop41ColorRGB
 90
        0
102
RTVSPost2010PropOp41
 70
     1
102
RTVSPost2010Prop42
 90
       50
102
RTVSPost2010PropOp42
 70
     1
102
RTVSPost2010Prop43
 90
        3
102
RTVSPost2010PropOp43
 70
     1
102
RTVSPost2010Prop44ColorIndex
 90
        5
102
RTVSPost2010Prop44ColorRGB
 90
      255
102
RTVSPost2010PropOp44
 70
     1
102
RTVSPost2010Prop45
280
     0
102
RTVSPost2010PropOp45
 70
     1
102
RTVSPost2010Prop46
 90
       50
102
RTVSPost2010PropOp46
 70
     1
102
RTVSPost2010Prop47
 90
       50
102
RTVSPost2010PropOp47
 70
     1
102
RTVSPost2010Prop48
 90
       50
102
RTVSPost2010PropOp48
 70
     1
102
RTVSPost2010Prop49
280
     0
102
RTVSPost2010PropOp49
 70
     1
102
RTVSPost2010Prop50
 90
       50
102
RTVSPost2010PropOp50
 70
     1
102
RTVSPost2010Prop51ColorIndex
 90
      256
102
RTVSPost2010Prop51ColorRGB
 90
-16777216
102
RTVSPost2010PropOp51
 70
     0
102
RTVSPost2010Prop52
140
1.0
102
RTVSPost2010PropOp52
 70
     0
102
RTVSPost2010Prop53
 90
        2
102
RTVSPost2010PropOp53
 70
     1
102
RTVSPost2010Prop54
  1
strokes_ogs.tif
102
RTVSPost2010PropOp54
 70
     1
102
RTVSPost2010Prop55
280
     0
102
RTVSPost2010PropOp55
 70
     1
102
RTVSPost2010Prop56
140
1.0
102
RTVSPost2010PropOp56
 70
     1
102
RTVSPost2010Prop57
140
1.0
102
RTVSPost2010PropOp57
 70
     1
  0
XRECORD
  5
301
102
{ACAD_REACTORS
330
300
102
}
330
300
100
AcDbXrecord
280
     1
102
RTVSPropertyOp0
 70
     1
102
RTVSPropertyOp1
 70
     1
102
RTVSPropertyOp2
 70
     1
102
RTVSPropertyOp3
 70
     1
102
RTVSPropertyOp4
 70
     1
102
RTVSPropertyOp5
 70
     1
102
RTVSPropertyOp6
 70
     1
102
RTVSPropertyOp7
 70
     1
102
RTVSPropertyOp8
 70
     1
102
RTVSPropertyOp9
 70
     1
102
RTVSPropertyOp10
 70
     1
102
RTVSPropertyOp11
 70
     1
102
RTVSPropertyOp12
 70
     1
102
RTVSPropertyOp13
 70
     1
102
RTVSPropertyOp14
 70
     1
102
RTVSPropertyOp15
 70
     1
102
RTVSPropertyOp16
 70
     1
102
RTVSPropertyOp17
 70
     1
102
RTVSPropertyOp18
 70
     1
102
RTVSPropertyOp19
 70
     1
102
RTVSPropertyOp20
 70
     1
102
RTVSPropertyOp21
 70
     1
102
RTVSPropertyOp22
 70
     1
102
RTVSPropertyOp23
 70
     1
102
RTVSPropertyOp24
 70
     1
102
RTVSPropertyOp25
 70
     1
102
RTVSPropertyOp26
 70
     1
102
RTVSPropertyOp27
 70
     1
102
RTVSPropertyOp28
 70
     1
102
RTVSPropertyOp29
 70
     1
102
RTVSPropertyOp30
 70
     1
102
RTVSPropertyOp31
 70
     1
102
RTVSPropertyOp32
 70
     1
102
RTVSPropertyOp33
 70
     1
102
RTVSPropertyOp34
 70
     1
102
RTVSPropertyOp35
 70
     1
102
RTVSPropertyOp36
 70
     1
102
RTVSPropertyOp37
 70
     1
102
RTVSPropertyOp38
 70
     1
102
RTVSPropertyOp39
 70
     1
102
RTVSPropertyOp40
 70
     1
102
RTVSPropertyOp41
 70
     1
102
RTVSPropertyOp42
 70
     1
102
RTVSPropertyOp43
 70
     1
102
RTVSPropertyOp44
 70
     1
102
RTVSPropertyOp45
 70
     1
102
RTVSPropertyOp46
 70
     1
102
RTVSPropertyOp47
 70
     1
102
RTVSPropertyOp48
 70
     1
102
RTVSPropertyOp49
 70
     1
102
RTVSPropertyOp50
 70
     1
102
RTVSPropertyOp51
 70
     0
102
RTVSPropertyOp52
 70
     0
102
RTVSPropertyOp53
 70
     1
102
RTVSPropertyOp54
 70
     1
102
RTVSPropertyOp55
 70
     1
102
RTVSPropertyOp56
 70
     1
102
RTVSPropertyOp57
 70
     1
102
RTVSPost2010Prop28
280
     0
102
RTVSPost2010PropOp28
 70
     1
102
RTVSPost2010Prop29
280
     1
102
RTVSPost2010PropOp29
 70
     1
102
RTVSPost2010Prop30
280
     1
102
RTVSPost2010PropOp30
 70
     1
102
RTVSPost2010Prop31
280
     0
102
RTVSPost2010PropOp31
 70
     1
102
RTVSPost2010Prop32
280
     0
102
RTVSPost2010PropOp32
 70
     1
102
RTVSPost2010Prop33
280
     0
102
RTVSPost2010PropOp33
 70
     1
102
RTVSPost2010Prop34
280
     0
102
RTVSPost2010PropOp34
 70
     1
102
RTVSPost2010Prop35
280
     0
102
RTVSPost2010PropOp35
 70
     1
102
RTVSPost2010Prop36
280
     0
102
RTVSPost2010PropOp36
 70
     1
102
RTVSPost2010Prop37
 90
       50
102
RTVSPost2010PropOp37
 70
     1
102
RTVSPost2010Prop38
140
0.0
102
RTVSPost2010PropOp38
 70
     1
102
RTVSPost2010Prop39
140
1.0
102
RTVSPost2010PropOp39
 70
     1
102
RTVSPost2010Prop40
 90
        0
102
RTVSPost2010PropOp40
 70
     1
102
RTVSPost2010Prop41ColorIndex
 90
       18
102
RTVSPost2010Prop41ColorRGB
 90
        0
102
RTVSPost2010PropOp41
 70
     1
102
RTVSPost2010Prop42
 90
       50
102
RTVSPost2010PropOp42
 70
     1
102
RTVSPost2010Prop43
 90
        3
102
RTVSPost2010PropOp43
 70
     1
102
RTVSPost2010Prop44ColorIndex
 90
        5
102
RTVSPost2010Prop44ColorRGB
 90
      255
102
RTVSPost2010PropOp44
 70
     1
102
RTVSPost2010Prop45
280
     0
102
RTVSPost2010PropOp45
 70
     1
102
RTVSPost2010Prop46
 90
       50
102
RTVSPost2010PropOp46
 70
     1
102
RTVSPost2010Prop47
 90
       50
102
RTVSPost2010PropOp47
 70
     1
102
RTVSPost2010Prop48
 90
       50
102
RTVSPost2010PropOp48
 70
     1
102
RTVSPost2010Prop49
280
     0
102
RTVSPost2010PropOp49
 70
     1
102
RTVSPost2010Prop50
 90
       50
102
RTVSPost2010PropOp50
 70
     1
102
RTVSPost2010Prop51ColorIndex
 90
      256
102
RTVSPost2010Prop51ColorRGB
 90
-16777216
102
RTVSPost2010PropOp51
 70
     0
102
RTVSPost2010Prop52
140
1.0
102
RTVSPost2010PropOp52
 70
     0
102
RTVSPost2010Prop53
 90
        2
102
RTVSPost2010PropOp53
 70
     1
102
RTVSPost2010Prop54
  1
strokes_ogs.tif
102
RTVSPost2010PropOp54
 70
     1
102
RTVSPost2010Prop55
280
     0
102
RTVSPost2010PropOp55
 70
     1
102
RTVSPost2010Prop56
140
1.0
102
RTVSPost2010PropOp56
 70
     1
102
RTVSPost2010Prop57
140
1.0
102
RTVSPost2010PropOp57
 70
     1
  0
XRECORD
  5
303
102
{ACAD_REACTORS
330
302
102
}
330
302
100
AcDbXrecord
280
     1
102
RTVSPropertyOp0
 70
     1
102
RTVSPropertyOp1
 70
     1
102
RTVSPropertyOp2
 70
     1
102
RTVSPropertyOp3
 70
     1
102
RTVSPropertyOp4
 70
     1
102
RTVSPropertyOp5
 70
     1
102
RTVSPropertyOp6
 70
     1
102
RTVSPropertyOp7
 70
     1
102
RTVSPropertyOp8
 70
     1
102
RTVSPropertyOp9
 70
     1
102
RTVSPropertyOp10
 70
     1
102
RTVSPropertyOp11
 70
     1
102
RTVSPropertyOp12
 70
     1
102
RTVSPropertyOp13
 70
     1
102
RTVSPropertyOp14
 70
     1
102
RTVSPropertyOp15
 70
     1
102
RTVSPropertyOp16
 70
     1
102
RTVSPropertyOp17
 70
     1
102
RTVSPropertyOp18
 70
     1
102
RTVSPropertyOp19
 70
     1
102
RTVSPropertyOp20
 70
     1
102
RTVSPropertyOp21
 70
     1
102
RTVSPropertyOp22
 70
     1
102
RTVSPropertyOp23
 70
     1
102
RTVSPropertyOp24
 70
     1
102
RTVSPropertyOp25
 70
     1
102
RTVSPropertyOp26
 70
     1
102
RTVSPropertyOp27
 70
     1
102
RTVSPropertyOp28
 70
     1
102
RTVSPropertyOp29
 70
     1
102
RTVSPropertyOp30
 70
     1
102
RTVSPropertyOp31
 70
     1
102
RTVSPropertyOp32
 70
     1
102
RTVSPropertyOp33
 70
     1
102
RTVSPropertyOp34
 70
     1
102
RTVSPropertyOp35
 70
     1
102
RTVSPropertyOp36
 70
     1
102
RTVSPropertyOp37
 70
     1
102
RTVSPropertyOp38
 70
     1
102
RTVSPropertyOp39
 70
     1
102
RTVSPropertyOp40
 70
     1
102
RTVSPropertyOp41
 70
     1
102
RTVSPropertyOp42
 70
     1
102
RTVSPropertyOp43
 70
     1
102
RTVSPropertyOp44
 70
     1
102
RTVSPropertyOp45
 70
     1
102
RTVSPropertyOp46
 70
     1
102
RTVSPropertyOp47
 70
     1
102
RTVSPropertyOp48
 70
     1
102
RTVSPropertyOp49
 70
     1
102
RTVSPropertyOp50
 70
     1
102
RTVSPropertyOp51
 70
     0
102
RTVSPropertyOp52
 70
     0
102
RTVSPropertyOp53
 70
     1
102
RTVSPropertyOp54
 70
     1
102
RTVSPropertyOp55
 70
     1
102
RTVSPropertyOp56
 70
     1
102
RTVSPropertyOp57
 70
     1
102
RTVSPost2010Prop28
280
     0
102
RTVSPost2010PropOp28
 70
     1
102
RTVSPost2010Prop29
280
     1
102
RTVSPost2010PropOp29
 70
     1
102
RTVSPost2010Prop30
280
     1
102
RTVSPost2010PropOp30
 70
     1
102
RTVSPost2010Prop31
280
     0
102
RTVSPost2010PropOp31
 70
     1
102
RTVSPost2010Prop32
280
     0
102
RTVSPost2010PropOp32
 70
     1
102
RTVSPost2010Prop33
280
     0
102
RTVSPost2010PropOp33
 70
     1
102
RTVSPost2010Prop34
280
     0
102
RTVSPost2010PropOp34
 70
     1
102
RTVSPost2010Prop35
280
     0
102
RTVSPost2010PropOp35
 70
     1
102
RTVSPost2010Prop36
280
     0
102
RTVSPost2010PropOp36
 70
     1
102
RTVSPost2010Prop37
 90
       50
102
RTVSPost2010PropOp37
 70
     1
102
RTVSPost2010Prop38
140
0.0
102
RTVSPost2010PropOp38
 70
     1
102
RTVSPost2010Prop39
140
1.0
102
RTVSPost2010PropOp39
 70
     1
102
RTVSPost2010Prop40
 90
        0
102
RTVSPost2010PropOp40
 70
     1
102
RTVSPost2010Prop41ColorIndex
 90
       18
102
RTVSPost2010Prop41ColorRGB
 90
        0
102
RTVSPost2010PropOp41
 70
     1
102
RTVSPost2010Prop42
 90
       50
102
RTVSPost2010PropOp42
 70
     1
102
RTVSPost2010Prop43
 90
        3
102
RTVSPost2010PropOp43
 70
     1
102
RTVSPost2010Prop44ColorIndex
 90
        5
102
RTVSPost2010Prop44ColorRGB
 90
      255
102
RTVSPost2010PropOp44
 70
     1
102
RTVSPost2010Prop45
280
     0
102
RTVSPost2010PropOp45
 70
     1
102
RTVSPost2010Prop46
 90
       50
102
RTVSPost2010PropOp46
 70
     1
102
RTVSPost2010Prop47
 90
       50
102
RTVSPost2010PropOp47
 70
     1
102
RTVSPost2010Prop48
 90
       50
102
RTVSPost2010PropOp48
 70
     1
102
RTVSPost2010Prop49
280
     0
102
RTVSPost2010PropOp49
 70
     1
102
RTVSPost2010Prop50
 90
       50
102
RTVSPost2010PropOp50
 70
     1
102
RTVSPost2010Prop51ColorIndex
 90
      256
102
RTVSPost2010Prop51ColorRGB
 90
-16777216
102
RTVSPost2010PropOp51
 70
     0
102
RTVSPost2010Prop52
140
1.0
102
RTVSPost2010PropOp52
 70
     0
102
RTVSPost2010Prop53
 90
        2
102
RTVSPost2010PropOp53
 70
     1
102
RTVSPost2010Prop54
  1
strokes_ogs.tif
102
RTVSPost2010PropOp54
 70
     1
102
RTVSPost2010Prop55
280
     0
102
RTVSPost2010PropOp55
 70
     1
102
RTVSPost2010Prop56
140
1.0
102
RTVSPost2010PropOp56
 70
     1
102
RTVSPost2010Prop57
140
1.0
102
RTVSPost2010PropOp57
 70
     1
  0
XRECORD
  5
2F3
102
{ACAD_REACTORS
330
2F2
102
}
330
2F2
100
AcDbXrecord
280
     1
102
RTVSPropertyOp0
 70
     1
102
RTVSPropertyOp1
 70
     1
102
RTVSPropertyOp2
 70
     1
102
RTVSPropertyOp3
 70
     1
102
RTVSPropertyOp4
 70
     1
102
RTVSPropertyOp5
 70
     1
102
RTVSPropertyOp6
 70
     1
102
RTVSPropertyOp7
 70
     1
102
RTVSPropertyOp8
 70
     1
102
RTVSPropertyOp9
 70
     1
102
RTVSPropertyOp10
 70
     1
102
RTVSPropertyOp11
 70
     1
102
RTVSPropertyOp12
 70
     1
102
RTVSPropertyOp13
 70
     1
102
RTVSPropertyOp14
 70
     1
102
RTVSPropertyOp15
 70
     1
102
RTVSPropertyOp16
 70
     1
102
RTVSPropertyOp17
 70
     1
102
RTVSPropertyOp18
 70
     1
102
RTVSPropertyOp19
 70
     1
102
RTVSPropertyOp20
 70
     1
102
RTVSPropertyOp21
 70
     1
102
RTVSPropertyOp22
 70
     1
102
RTVSPropertyOp23
 70
     1
102
RTVSPropertyOp24
 70
     1
102
RTVSPropertyOp25
 70
     1
102
RTVSPropertyOp26
 70
     1
102
RTVSPropertyOp27
 70
     1
102
RTVSPropertyOp28
 70
     1
102
RTVSPropertyOp29
 70
     1
102
RTVSPropertyOp30
 70
     1
102
RTVSPropertyOp31
 70
     1
102
RTVSPropertyOp32
 70
     1
102
RTVSPropertyOp33
 70
     1
102
RTVSPropertyOp34
 70
     1
102
RTVSPropertyOp35
 70
     1
102
RTVSPropertyOp36
 70
     1
102
RTVSPropertyOp37
 70
     1
102
RTVSPropertyOp38
 70
     1
102
RTVSPropertyOp39
 70
     1
102
RTVSPropertyOp40
 70
     1
102
RTVSPropertyOp41
 70
     1
102
RTVSPropertyOp42
 70
     1
102
RTVSPropertyOp43
 70
     1
102
RTVSPropertyOp44
 70
     1
102
RTVSPropertyOp45
 70
     1
102
RTVSPropertyOp46
 70
     1
102
RTVSPropertyOp47
 70
     1
102
RTVSPropertyOp48
 70
     1
102
RTVSPropertyOp49
 70
     1
102
RTVSPropertyOp50
 70
     1
102
RTVSPropertyOp51
 70
     0
102
RTVSPropertyOp52
 70
     0
102
RTVSPropertyOp53
 70
     1
102
RTVSPropertyOp54
 70
     1
102
RTVSPropertyOp55
 70
     1
102
RTVSPropertyOp56
 70
     1
102
RTVSPropertyOp57
 70
     1
102
RTVSPost2010Prop28
280
     0
102
RTVSPost2010PropOp28
 70
     1
102
RTVSPost2010Prop29
280
     1
102
RTVSPost2010PropOp29
 70
     1
102
RTVSPost2010Prop30
280
     1
102
RTVSPost2010PropOp30
 70
     1
102
RTVSPost2010Prop31
280
     0
102
RTVSPost2010PropOp31
 70
     1
102
RTVSPost2010Prop32
280
     0
102
RTVSPost2010PropOp32
 70
     1
102
RTVSPost2010Prop33
280
     0
102
RTVSPost2010PropOp33
 70
     1
102
RTVSPost2010Prop34
280
     0
102
RTVSPost2010PropOp34
 70
     1
102
RTVSPost2010Prop35
280
     0
102
RTVSPost2010PropOp35
 70
     1
102
RTVSPost2010Prop36
280
     0
102
RTVSPost2010PropOp36
 70
     1
102
RTVSPost2010Prop37
 90
       50
102
RTVSPost2010PropOp37
 70
     1
102
RTVSPost2010Prop38
140
0.0
102
RTVSPost2010PropOp38
 70
     1
102
RTVSPost2010Prop39
140
1.0
102
RTVSPost2010PropOp39
 70
     1
102
RTVSPost2010Prop40
 90
        0
102
RTVSPost2010PropOp40
 70
     1
102
RTVSPost2010Prop41ColorIndex
 90
       18
102
RTVSPost2010Prop41ColorRGB
 90
        0
102
RTVSPost2010PropOp41
 70
     1
102
RTVSPost2010Prop42
 90
       50
102
RTVSPost2010PropOp42
 70
     1
102
RTVSPost2010Prop43
 90
        3
102
RTVSPost2010PropOp43
 70
     1
102
RTVSPost2010Prop44ColorIndex
 90
        5
102
RTVSPost2010Prop44ColorRGB
 90
      255
102
RTVSPost2010PropOp44
 70
     1
102
RTVSPost2010Prop45
280
     0
102
RTVSPost2010PropOp45
 70
     1
102
RTVSPost2010Prop46
 90
       50
102
RTVSPost2010PropOp46
 70
     1
102
RTVSPost2010Prop47
 90
       50
102
RTVSPost2010PropOp47
 70
     1
102
RTVSPost2010Prop48
 90
       50
102
RTVSPost2010PropOp48
 70
     1
102
RTVSPost2010Prop49
280
     0
102
RTVSPost2010PropOp49
 70
     1
102
RTVSPost2010Prop50
 90
       50
102
RTVSPost2010PropOp50
 70
     1
102
RTVSPost2010Prop51ColorIndex
 90
      256
102
RTVSPost2010Prop51ColorRGB
 90
-16777216
102
RTVSPost2010PropOp51
 70
     0
102
RTVSPost2010Prop52
140
1.0
102
RTVSPost2010PropOp52
 70
     0
102
RTVSPost2010Prop53
 90
        2
102
RTVSPost2010PropOp53
 70
     1
102
RTVSPost2010Prop54
  1
strokes_ogs.tif
102
RTVSPost2010PropOp54
 70
     1
102
RTVSPost2010Prop55
280
     0
102
RTVSPost2010PropOp55
 70
     1
102
RTVSPost2010Prop56
140
1.0
102
RTVSPost2010PropOp56
 70
     1
102
RTVSPost2010Prop57
140
1.0
102
RTVSPost2010PropOp57
 70
     1
  0
XRECORD
  5
2E5
102
{ACAD_REACTORS
330
2E4
102
}
330
2E4
100
AcDbXrecord
280
     1
102
RTVSPropertyOp0
 70
     1
102
RTVSPropertyOp1
 70
     1
102
RTVSPropertyOp2
 70
     1
102
RTVSPropertyOp3
 70
     1
102
RTVSPropertyOp4
 70
     1
102
RTVSPropertyOp5
 70
     1
102
RTVSPropertyOp6
 70
     1
102
RTVSPropertyOp7
 70
     1
102
RTVSPropertyOp8
 70
     1
102
RTVSPropertyOp9
 70
     1
102
RTVSPropertyOp10
 70
     1
102
RTVSPropertyOp11
 70
     1
102
RTVSPropertyOp12
 70
     1
102
RTVSPropertyOp13
 70
     1
102
RTVSPropertyOp14
 70
     1
102
RTVSPropertyOp15
 70
     1
102
RTVSPropertyOp16
 70
     1
102
RTVSPropertyOp17
 70
     1
102
RTVSPropertyOp18
 70
     1
102
RTVSPropertyOp19
 70
     1
102
RTVSPropertyOp20
 70
     1
102
RTVSPropertyOp21
 70
     1
102
RTVSPropertyOp22
 70
     1
102
RTVSPropertyOp23
 70
     1
102
RTVSPropertyOp24
 70
     1
102
RTVSPropertyOp25
 70
     1
102
RTVSPropertyOp26
 70
     1
102
RTVSPropertyOp27
 70
     1
102
RTVSPropertyOp28
 70
     1
102
RTVSPropertyOp29
 70
     1
102
RTVSPropertyOp30
 70
     1
102
RTVSPropertyOp31
 70
     1
102
RTVSPropertyOp32
 70
     1
102
RTVSPropertyOp33
 70
     1
102
RTVSPropertyOp34
 70
     1
102
RTVSPropertyOp35
 70
     1
102
RTVSPropertyOp36
 70
     1
102
RTVSPropertyOp37
 70
     1
102
RTVSPropertyOp38
 70
     1
102
RTVSPropertyOp39
 70
     1
102
RTVSPropertyOp40
 70
     1
102
RTVSPropertyOp41
 70
     1
102
RTVSPropertyOp42
 70
     1
102
RTVSPropertyOp43
 70
     1
102
RTVSPropertyOp44
 70
     1
102
RTVSPropertyOp45
 70
     1
102
RTVSPropertyOp46
 70
     1
102
RTVSPropertyOp47
 70
     1
102
RTVSPropertyOp48
 70
     1
102
RTVSPropertyOp49
 70
     1
102
RTVSPropertyOp50
 70
     1
102
RTVSPropertyOp51
 70
     0
102
RTVSPropertyOp52
 70
     0
102
RTVSPropertyOp53
 70
     1
102
RTVSPropertyOp54
 70
     1
102
RTVSPropertyOp55
 70
     1
102
RTVSPropertyOp56
 70
     1
102
RTVSPropertyOp57
 70
     1
102
RTVSPost2010Prop28
280
     0
102
RTVSPost2010PropOp28
 70
     1
102
RTVSPost2010Prop29
280
     1
102
RTVSPost2010PropOp29
 70
     1
102
RTVSPost2010Prop30
280
     1
102
RTVSPost2010PropOp30
 70
     1
102
RTVSPost2010Prop31
280
     0
102
RTVSPost2010PropOp31
 70
     1
102
RTVSPost2010Prop32
280
     0
102
RTVSPost2010PropOp32
 70
     1
102
RTVSPost2010Prop33
280
     0
102
RTVSPost2010PropOp33
 70
     1
102
RTVSPost2010Prop34
280
     0
102
RTVSPost2010PropOp34
 70
     1
102
RTVSPost2010Prop35
280
     0
102
RTVSPost2010PropOp35
 70
     1
102
RTVSPost2010Prop36
280
     0
102
RTVSPost2010PropOp36
 70
     1
102
RTVSPost2010Prop37
 90
       50
102
RTVSPost2010PropOp37
 70
     1
102
RTVSPost2010Prop38
140
0.0
102
RTVSPost2010PropOp38
 70
     1
102
RTVSPost2010Prop39
140
1.0
102
RTVSPost2010PropOp39
 70
     1
102
RTVSPost2010Prop40
 90
        0
102
RTVSPost2010PropOp40
 70
     1
102
RTVSPost2010Prop41ColorIndex
 90
       18
102
RTVSPost2010Prop41ColorRGB
 90
        0
102
RTVSPost2010PropOp41
 70
     1
102
RTVSPost2010Prop42
 90
       50
102
RTVSPost2010PropOp42
 70
     1
102
RTVSPost2010Prop43
 90
        3
102
RTVSPost2010PropOp43
 70
     1
102
RTVSPost2010Prop44ColorIndex
 90
        5
102
RTVSPost2010Prop44ColorRGB
 90
      255
102
RTVSPost2010PropOp44
 70
     1
102
RTVSPost2010Prop45
280
     0
102
RTVSPost2010PropOp45
 70
     1
102
RTVSPost2010Prop46
 90
       50
102
RTVSPost2010PropOp46
 70
     1
102
RTVSPost2010Prop47
 90
       50
102
RTVSPost2010PropOp47
 70
     1
102
RTVSPost2010Prop48
 90
       50
102
RTVSPost2010PropOp48
 70
     1
102
RTVSPost2010Prop49
280
     0
102
RTVSPost2010PropOp49
 70
     1
102
RTVSPost2010Prop50
 90
       50
102
RTVSPost2010PropOp50
 70
     1
102
RTVSPost2010Prop51ColorIndex
 90
      256
102
RTVSPost2010Prop51ColorRGB
 90
-16777216
102
RTVSPost2010PropOp51
 70
     0
102
RTVSPost2010Prop52
140
1.0
102
RTVSPost2010PropOp52
 70
     0
102
RTVSPost2010Prop53
 90
        2
102
RTVSPost2010PropOp53
 70
     1
102
RTVSPost2010Prop54
  1
strokes_ogs.tif
102
RTVSPost2010PropOp54
 70
     1
102
RTVSPost2010Prop55
280
     0
102
RTVSPost2010PropOp55
 70
     1
102
RTVSPost2010Prop56
140
1.0
102
RTVSPost2010PropOp56
 70
     1
102
RTVSPost2010Prop57
140
1.0
102
RTVSPost2010PropOp57
 70
     1
  0
XRECORD
  5
305
102
{ACAD_REACTORS
330
304
102
}
330
304
100
AcDbXrecord
280
     1
102
RTVSPropertyOp0
 70
     1
102
RTVSPropertyOp1
 70
     1
102
RTVSPropertyOp2
 70
     1
102
RTVSPropertyOp3
 70
     1
102
RTVSPropertyOp4
 70
     1
102
RTVSPropertyOp5
 70
     1
102
RTVSPropertyOp6
 70
     1
102
RTVSPropertyOp7
 70
     1
102
RTVSPropertyOp8
 70
     1
102
RTVSPropertyOp9
 70
     1
102
RTVSPropertyOp10
 70
     1
102
RTVSPropertyOp11
 70
     1
102
RTVSPropertyOp12
 70
     1
102
RTVSPropertyOp13
 70
     1
102
RTVSPropertyOp14
 70
     1
102
RTVSPropertyOp15
 70
     1
102
RTVSPropertyOp16
 70
     1
102
RTVSPropertyOp17
 70
     1
102
RTVSPropertyOp18
 70
     1
102
RTVSPropertyOp19
 70
     1
102
RTVSPropertyOp20
 70
     1
102
RTVSPropertyOp21
 70
     1
102
RTVSPropertyOp22
 70
     1
102
RTVSPropertyOp23
 70
     1
102
RTVSPropertyOp24
 70
     1
102
RTVSPropertyOp25
 70
     1
102
RTVSPropertyOp26
 70
     1
102
RTVSPropertyOp27
 70
     1
102
RTVSPropertyOp28
 70
     1
102
RTVSPropertyOp29
 70
     1
102
RTVSPropertyOp30
 70
     1
102
RTVSPropertyOp31
 70
     1
102
RTVSPropertyOp32
 70
     1
102
RTVSPropertyOp33
 70
     1
102
RTVSPropertyOp34
 70
     1
102
RTVSPropertyOp35
 70
     1
102
RTVSPropertyOp36
 70
     1
102
RTVSPropertyOp37
 70
     1
102
RTVSPropertyOp38
 70
     1
102
RTVSPropertyOp39
 70
     1
102
RTVSPropertyOp40
 70
     1
102
RTVSPropertyOp41
 70
     1
102
RTVSPropertyOp42
 70
     1
102
RTVSPropertyOp43
 70
     1
102
RTVSPropertyOp44
 70
     1
102
RTVSPropertyOp45
 70
     1
102
RTVSPropertyOp46
 70
     1
102
RTVSPropertyOp47
 70
     1
102
RTVSPropertyOp48
 70
     1
102
RTVSPropertyOp49
 70
     1
102
RTVSPropertyOp50
 70
     1
102
RTVSPropertyOp51
 70
     0
102
RTVSPropertyOp52
 70
     0
102
RTVSPropertyOp53
 70
     1
102
RTVSPropertyOp54
 70
     1
102
RTVSPropertyOp55
 70
     1
102
RTVSPropertyOp56
 70
     1
102
RTVSPropertyOp57
 70
     1
102
RTVSPost2010Prop28
280
     0
102
RTVSPost2010PropOp28
 70
     1
102
RTVSPost2010Prop29
280
     1
102
RTVSPost2010PropOp29
 70
     1
102
RTVSPost2010Prop30
280
     1
102
RTVSPost2010PropOp30
 70
     1
102
RTVSPost2010Prop31
280
     0
102
RTVSPost2010PropOp31
 70
     1
102
RTVSPost2010Prop32
280
     0
102
RTVSPost2010PropOp32
 70
     1
102
RTVSPost2010Prop33
280
     0
102
RTVSPost2010PropOp33
 70
     1
102
RTVSPost2010Prop34
280
     0
102
RTVSPost2010PropOp34
 70
     1
102
RTVSPost2010Prop35
280
     0
102
RTVSPost2010PropOp35
 70
     1
102
RTVSPost2010Prop36
280
     0
102
RTVSPost2010PropOp36
 70
     1
102
RTVSPost2010Prop37
 90
       50
102
RTVSPost2010PropOp37
 70
     1
102
RTVSPost2010Prop38
140
0.0
102
RTVSPost2010PropOp38
 70
     1
102
RTVSPost2010Prop39
140
1.0
102
RTVSPost2010PropOp39
 70
     1
102
RTVSPost2010Prop40
 90
        0
102
RTVSPost2010PropOp40
 70
     1
102
RTVSPost2010Prop41ColorIndex
 90
       18
102
RTVSPost2010Prop41ColorRGB
 90
        0
102
RTVSPost2010PropOp41
 70
     1
102
RTVSPost2010Prop42
 90
       50
102
RTVSPost2010PropOp42
 70
     1
102
RTVSPost2010Prop43
 90
        3
102
RTVSPost2010PropOp43
 70
     1
102
RTVSPost2010Prop44ColorIndex
 90
        5
102
RTVSPost2010Prop44ColorRGB
 90
      255
102
RTVSPost2010PropOp44
 70
     1
102
RTVSPost2010Prop45
280
     0
102
RTVSPost2010PropOp45
 70
     1
102
RTVSPost2010Prop46
 90
       50
102
RTVSPost2010PropOp46
 70
     1
102
RTVSPost2010Prop47
 90
       50
102
RTVSPost2010PropOp47
 70
     1
102
RTVSPost2010Prop48
 90
       50
102
RTVSPost2010PropOp48
 70
     1
102
RTVSPost2010Prop49
280
     0
102
RTVSPost2010PropOp49
 70
     1
102
RTVSPost2010Prop50
 90
       50
102
RTVSPost2010PropOp50
 70
     1
102
RTVSPost2010Prop51ColorIndex
 90
      256
102
RTVSPost2010Prop51ColorRGB
 90
-16777216
102
RTVSPost2010PropOp51
 70
     0
102
RTVSPost2010Prop52
140
1.0
102
RTVSPost2010PropOp52
 70
     0
102
RTVSPost2010Prop53
 90
        2
102
RTVSPost2010PropOp53
 70
     1
102
RTVSPost2010Prop54
  1
strokes_ogs.tif
102
RTVSPost2010PropOp54
 70
     1
102
RTVSPost2010Prop55
280
     0
102
RTVSPost2010PropOp55
 70
     1
102
RTVSPost2010Prop56
140
1.0
102
RTVSPost2010PropOp56
 70
     1
102
RTVSPost2010Prop57
140
1.0
102
RTVSPost2010PropOp57
 70
     1
  0
ENDSEC
  0
EOF
